• Song:

    Always New Depths

  • Artist:

    Bloc Party

  • Album:

    So Here We Are / Positi...

INTRO

e|-------------------------------------------------------------------------|
B|-------------------------------------------------------------------------|
G|-9-11-11-9-11-11-9-11-9-11-11-12-12-11-4-4-4-4-4-4-4-4-4-4-4-12-12-11----|
D|-0-0--0--0-0--0--0-0--0-0--0--0--0--0--0-0-0-0-0-0-0-0-0-0-0-0--0--0-----|
A|-------------------------------------------------------------------------|
E|-------------------------------------------------------------------------|

VERSE

e|--5-5-5-5-5-5-5-5-5-5-5-5-5-5-5-5----------------------------------------|
B|--7-7-7-7-7-7-7-7-7-7-7-7-8-8-8-8----------------------------------------|
G|--7-7-7-7-7-7-7-7-7-7-7-7-7-7-7-7----------------------------------------|
D|--7-7-7-7-7-7-7-7-7-7-7-7-7-7-7-7----------------------------------------|
A|--5-5-5-5-5-5-5-5-5-5-5-5-5-5-5-5----------------------------------------|
E|--5-5-5-5-5-5-5-5-5-5-5-5-5-5-5-5----------------------------------------|
Show more