• Song:

    Always New Depths

  • Artist:

    Bloc Party

  • Album:

    So Here We Are / Positi...

Guitar 1 (left speaker)
intro (1st part) play twice
e---------------------------------------------------------------------------|
b---------------------------------------------------------------------------|
g-9-11-11-9-11-11-9-11--9-11-11-12-12-11-------------------------12-12-11-9-|
d----------------------------------------9-9-9-9-9-9-9-9-9-9-9-9------------|
a---------------------------------------------------------------------------|
e---------------------------------------------------------------------------|

2nd part
e----------------------------------------|
b----------------------------------------|
g-9-11-11-9-11-11-9-11--9-11-11-12-12-11-|
d----------------------------------------|  play 4x
a----------------------------------------|
e----------------------------------------|

verse
e--------------------------------------------------|
b--------------------------------------------------|
g-11-11-11-11-11-11-11-11-11-11-11-11-12-12-12-12--|
d--------------------------------------------------|  play numerous times till
a--------------------------------------------------|  pre-chorus
e--------------------------------------------------|

prechorus  (i can't really tell how it goes)
e---------|
b---------|
g---------|
d-7~-7-4~-|
a---------|
e---------|

chorus  (you can play either way since you can wing it, either the prechorus again or 
the 7 and 4 in the rhythm they're in)
e-------------------------------------------------------------|
b-------------------------------------------------------------|
g-------------------------------------------------------------|
d-7-7-7-7-7-7-7-7-7-7-7-7-7-7-7-4-4-4-4-4-4-4-4-4-4-4-4-4-4-4-|
a-------------------------------------------------------------|
e-------------------------------------------------------------|

play verse, chorus again
bridge (guitar 2 plays for awhile till guitar 1 kicks in)
e-10-10----------|
b----------10-10-|
g----------------|
d----------------|
a----------------|
e----------------|

you pretty much play the bridge till the instrumental part at the end

guitar 2 (right speaker)
intro
e----------------7------------------------------|
b-10---10---10-----10-----10---10---10-----10---|
g----7----7----7------7------7----7----7-9----9-|
d-----------------------------------------------|
a-----------------------------------------------|
e-----------------------------------------------|

e----------------7-----------------------------|
b-10---10---10-----10-----10---10---10---12s14-|
g----7----7----7------7------7----7----7-------|
d----------------------------------------------|
a----------------------------------------------|
e----------------------------------------------|

verse  (1st riff)
e---------------------------------------------------------------|
b-10---10---10---10------------------------10---10---10---10----|
g----7----7----7----7-------------------------7----7----7----7--|
d----------------------9-9-9-9-11-11-11-11----------------------|
a---------------------------------------------------------------|
e---------------------------------------------------------------|

e---------------------|
b-10---10---10---10---|
g----7----7----7----7-|
d---------------------|
a---------------------|
e---------------------|

2nd riff
e------------------------------------------------------------|
b-10---10---10---10---------------------10---10---10---10----|
g----7----7----7----7----------------------7----7----7----7--|
d----------------------9-9-9-9-7-7-7-7-----------------------|
a------------------------------------------------------------|
e------------------------------------------------------------|

e---------------------|
b-10---10---10---10---|
g----7----7----7----7-|
d---------------------|
a---------------------|
e---------------------|

you play the 1st riff 1x, then 2nd riff 1x and keep switching.  figure out when to play which riff

pre-chorus/chorus
e-------------------------------------------------------------------------|
b-------------------------------------------------------------------------|
g-------------------------------------------------------------------------|
d-9-9-9-9-9-9-9-9-11-11-11-11-11-11-11-11-9-9-9-9-9-9-9-9-7-7-7-7-7-7-7-7-|
a-------------------------------------------------------------------------|
e-------------------------------------------------------------------------|

e-------------------------------------------------------------------------|
b-------------------------------------------------------------------------|
g-------------------------------------------------------------------------|
d-9-9-9-9-9-9-9-9-11-11-11-11-11-11-11-11-9-9-9-9-9-9-9-9-7-7-7-7-7-7-7-7-|
a-------------------------------------------------------------------------|
e-------------------------------------------------------------------------|

2nd verse
e-9----9----9----10-9----9----9----9------9----|
b---10---10---10------10---10---10---10-7---10-|
g----------------------------------------------|
d----------------------------------------------|
a----------------------------------------------|
e----------------------------------------------|

bridge
e---------------------------------------------------------------------|
b---10------10------10------10-------10-------10-------10-------10----|
g------11------11------11------11-------11-------11-------11-------11-| 2x
d-9-------9-------9-------9-------11-------11-------11-------11-------|
a---------------------------------------------------------------------|
e---------------------------------------------------------------------|

outro
e------------------------------|
b--------------these are 11s---|
g-4-/6-/9-/12-1111111111111111-|
d-x-/x-/x-/-x--x-x-x-x-x-x-x-x-| continue till instrumental ending
a-2-/4-/7-/10--9-9-9-9-9-9-9-9-|
e------------------------------|
Show more