• Song:

    Compliments

  • Artist:

    Bloc Party

  • Album:

    2004/11/30 Peel Session...

A brilliant song by a brilliant band so thought i'd have a shot at tabbing it. It's hard 
there is so much going on with drums guitars bass keyboards and god knows what but i 
it. Listen to the song for timing.
Guitar one plays the intro then the verse a few times before Guitar two comes in for the 
solo and then guitar one and two play until the end. Enjoy


Guitar 1
Intro (x10)
e|----------|
B|----------|
G|----------|
D|----------|
A|----------|
E|-11-7-9-7-|

Verse (x40)
e|4-2-4-2-4-2-4-2-|
B|----------------|
G|----------------|
D|----------------|
A|----------------|
E|----------------|


Guitar 2 Solo
e|------------------------------------------------------|
B|-----------------------------------------------7------|
G|---------------------------7-----------------8----8---|
D|-8-8-8-9-4-2-1---8-8-8-9-8---9-8---8-8-8-9-9--------9-|
A|------------------------------------------------------|
E|------------------------------------------------------|

e|--------------------------------|
B|-----------7----7-7-7-7-7-7-7-7-|
G|---------8----------------------|
D|-8-8-9-8------------------------|
A|--------------------------------|
E|--------------------------------|

Outro
e|---------------------------------|
B|-7-7-7-7-7-7-7-7-7-7-7-7-7-7-7-7-|
G|---------------------------------|
D|---------------------------------|
A|---------------------------------|
E|---------------------------------|

(x8)
e|---------------------------------|
B|-12-12-12-11-11-11-9-9-9-7-7-7-7-|
G|---------------------------------|
D|---------------------------------|
A|---------------------------------|
E|---------------------------------|

(x11)
e|-12-12-12-11-11-11-9-9-9-7-7-7-7-|
B|---------------------------------|
G|---------------------------------|
D|---------------------------------|
A|---------------------------------|
E|---------------------------------|
Show more