• Song:

    Compliments

  • Artist:

    Bloc Party

  • Album:

    2004/11/30 Peel Session...

Tuning: standard

e|---------------------------------------------------------------------------|
B|---------------------------------------------------------------------------|
G|--3-3-3-3-3-3-3---4---6----------------------------------------------------|
D|--------------------------4---2---1----------------------------------------|
A|---------------------------------------------------------------------------|
E|---------------------------------------------------------------------------|

e|---------------------------------------------------------------------------|
B|--------------------------7--5--4------------------------------------------|
G|--3-3-3-3-3-3-3---4---6----------------------------------------------------|
D|---------------------------------------------------------------------------|
A|---------------------------------------------------------------------------|
E|---------------------------------------------------------------------------|


e|---------------------------------------------------------------------------|
B|---------------------------------------------------------------------------|
G|--3-3-3-3-3-3-3---4---6---11--6--4-----------------------------------------|
D|---------------------------------------------------------------------------|
A|---------------------------------------------------------------------------|
E|---------------------------------------------------------------------------|

e|---------------------------------------------------------------------------|
B|---------------------------------------------------------------------------|
G|--3-3-3-3-3-3-3---4---6---8--11------16------------------------------------|
D|---------------------------------------------------------------------------|
A|---------------------------------------------------------------------------|
E|---------------------------------------------------------------------------|


  very faint
e|-----------------------------------------------------14------------14------------|
B|-----------------------------------------12--14------------12--14----------------|
G|--16--15-------16--15------------------------------------------------------------|
D|----------16-----------16--------------------------------------------------------|
A|---------------------------------------------------------------------------------|
E|---------------------------------------------------------------------------------|
Show more