• Song:

    Compliments

  • Artist:

    Bloc Party

  • Album:

    2004/11/30 Peel Session...

Guitar 1
Verse (x40)
e|-----------------|
B|-----------------|
G|11--11--11--11---|
D|--11--11--11--11-|
A|-----------------|
E|-----------------|


Guitar 2 (Delay, Reverb)
e|----------------------------------------|
B|---------------------------7------------|
G|----------------------------------------|
D|-8-8-8-9-4-2-1---8-8-8-9----9-8-9-----4-|
A|----------------------------------------|
E|----------------------------------------|

e|--------------------------------|
B|--------------------------------|
G|-------------11-9---------------|
D|-8-8-8-9-11-13------13-9--(11-8)|
A|--------------------------------|
E|--------------------------------|


e|-----------------------------------------|
B|-------------7-7-7-7-7-7-7-7-9-9-9-9-9-9-|
G|---------6-8-----------------------------|
D|-8-8-8-9---------------------------------|
A|-----------------------------------------|
E|-----------------------------------------|

(x8)
e|---------------------------------------|
B|-12-12-12-12-12-12-11-11-11-11-7-7-7-7-|
G|---------------------------------------|
D|---------------------------------------|
A|---------------------------------------|
E|---------------------------------------|

(x11)
e|---------------------------------|
B|-12-12-14-14-16-16-19-19---19h---|
G|---------------------------------|
D|---------------------------------|
A|---------------------------------|
E|---------------------------------|


enjoy it!
Show more