• Song:

    England

  • Artist:

    Bloc Party

Great B-Side

Intro/Verse - Play note in bracket every other time.
G|----------------------------------|
D|5~-------------1~-----------------|
A|------------------------------(3~)|
E|----------------------------------|

Chorus
G|-------------------------------|
D|555555533333333--------11111111|
A|---------------33333333--------|
E|-------------------------------|

Break/Solo
G|----------------------------------------------------------------|
D|--------------------------------11111111111111111111111111111133|
A|11111111111111331111111111113355--------------------------------|
E|----------------------------------------------------------------|

G|--------------------------------------------------------------55|
D|55555555555555775555555555555577888888888888888888888888888888--|
A|----------------------------------------------------------------|
E|----------------------------------------------------------------|

G|88888888888888888888888888888888---------------------------------------|
D|--------------------------------55555555555555555555555555555555-78~---|
A|-----------------------------------------------------------------------|
E|-----------------------------------------------------------------------|
Show more