• Song:

    Helicopter

  • Artist:

    Bloc Party

  • Album:

    Live at Reading

This is how i think it sounds, and this is how my band play the intro anyway :P


Kele
e]----------------------------------|----------------------------------|
b]----------------------------------|----------------------------------|
g]----------------------------------|----------------------------------|
d]----------------------------------|----------------------------------|
a]------7-7-5-5-4-4-2-2-0-0-2--4--0-|------7-7-5-5-4-4-2-2-0-0-2--4--0-|
e]--7-7-----------------------------|--7-7-----------------------------|x3

e]----------------------------------|----------------------------------|
b]----------------------------------|----------------------------------|
g]----------------------------------|----------------------------------|
d]----------------------------------|----------------------------------|
a]------7-7-5-5-4-4-2-2-0-0-2--4--0-|------7-7-5-5-4-4-2-2-0-0-2--4>7--|
e]--7-7-----------------------------|--7-7-----------------------------| 



Russel
e]------------------------------------|----------------------------------|
b]------------------------------------|----------------------------------|
g]------------------------------------|----------------------------------|
d]------9-9-7-7------------11-11-11-9-|-----9-9-7-7-----------11-11-11-9-|
a]--------------9-9-0-0-9-------------|-------------9-9-0-0-9------------|
e]--7-7-------------------------------|-7-7------------------------------|x3

e]------------------------------------|------------------------------------|
b]------------------------------------|------------------------------------|
g]------------------------------------|------------------------------------|
d]------9-9-7-7----------9-11-11-11-9-|-----9-9-7-7---------9-11-11-11-9-9-|
a]--------------9-9-0-0---------------|-------------9-9-0-0----------------|
e]--7-7-------------------------------|-7-7--------------------------------|
Show more