sponsored links
Song:Brave New Hell
Band:Bloodbath
Album:Nightmares Made Flesh

There was no bass tab of this awesome Bloodbath song, so I'm tabbing this
as a 4-string bass tab. It could be played with either a 4-string or a 5-
string bass. But, it makes no difference because the high G string isn't
used anyways. And, before anyone says anything, there is more than one way
to play this song. I'm just showing one way.

*Note: Space between notes is not measuring rests in the song.
That's for whoever plays this to figure out how long to rest in
the song.

Tabbed By :TheZoeman
e-mail:zmtvf@yahoo.com

Tuning:B standard(5-string or 4-string, it doesn't really matter)
Riff 1(Main Riff)
D|-------------------------------------------------------------------------|
A|-------------------------------------------------------------------------|
E|-------------------------------------------------------------------------|
B|-0--0-0-0-1--0-1-4--0--0-0-0-1--0-4-3-1--0--0-0-0-1-0-1-4--0-------------|
Riff 2(Verse)
|--------------------------------------------------------------------------|
|--------------------------------------------------------------------------|
|----------7-8-7-5----------10-12-13-12----------7-8-7-5-------------------|
|-00000000---------66666666-------------00000000---------66666666-3-5-6-5--|
Riff 3(Pre-Chorus)
|-------------------------|
|-------------------------|
|----------1-1-------2----|
|-0--0-0-0-----2-1-1---2--|
Riff 4(Chorus Part 1)
|----------------------------------------------------------------|
|----------------------------------------------------------------|
|-----------------2-3-2-2-2-2-2-2--------------------------------|
|-4-4-4-4-3-3-0-1-----------------4-4-4-4-3-3-0-1--0-1-0--0-1-0--|
Riff 5(Chorus Part 2)
|-----------------------------------------------|
|-----------------------------------------------|
|------------2-3-2------------------------------|
|-4---3--0-1-----------4---3--0-1-0-1-0--0-1-0--|
Riff 6
|--------------------------------------------|
|--------------------------------------------|
|---------6----------------------------------|
|-0---------0-------6-0-------0-----3-5-6-5--|
Riff 7
|-------------------------------------------------------------------|
|-------------------------------------------------------------------|
|-------------------------------------------------------------------|
|-0--0--0--0--0--6-0--0--0--0--1-0--0--0--0-6--0--0--0--0--3-5-6-5--|
Riff 8
|----------------------------------------------------|
|----------------------------------------------------|
|-------------------------------6--------------------|
|-0-0-0-0-6--0-0-0-0-1--0-0-0-0----0-0-0-0--3-5-6-5--|
Riff 9(Melodic Part)
|-------------|
|-------------|
|-------------|
|-0-0---------|
Riff 10
|----------------------------|
|----------------------------|
|----------------------------|
|-0-0--0-0--3-3-3-3-6-6-6-6--|

or

Riff 11(what Rhythm Guitar plays)
|---------------------------| This part sounds cool on bass. It's just a
|--------------5-------8----| matter of preference.
|------------4---4---7---7--|
|0-0--0-0--3-------6--------|

Those are the riffs that are in the song. Now, as far as order goes, here it goes:

Riff 1 x2-|
Riff 2 x2-|
Riff 3 x4-|--x2
Riff 4 x2-|
Riff 5 x2-|

Riff 6 x1
Riff 7 x2
Riff 8 x2

Riff 9 x1
Riff 10(or Riff 11) x2

Riff 1 x2
Riff 4 x2
Riff 5 x2

So, that's pretty much it. Just follow the rythyms of the song and if there is any
or if you want to critique my tab, just email me at zmtvf@yahoo.com, leave a comment, 
me, whatever!

-TheZoeman
Show more
sponsored links
sponsored links