-------------------------------------------------------------------------------
			     Disco Punks On Jolt - Blue Stahli 
-------------------------------------------------------------------------------

Tabbed By : Necrotic
e-mail: joelschwallier@gmail.com

Tuning: Drop D

Guitar plays intro twice and bass comes in on the last measure.

Intro
G|----------------|--------------|----------------|----------------|
D|----------------|--------------|----------------|----------------|
A|----------------|--------------|----------------|----------------|
D|0-5---0-2---2-2-|0-5-5-0-2-----|0-5---0-2---2-2-|0-7-7---5---5-5-|x2

Pre-Verse (Bass Synth) Optional
G|------------------------------------------------------------------|
D|------------------------------------------------------------------|
A|------------------------------------------------------------------|
D|--2---2---5---0---2---2---5---0---2---2---5---0---7-7---5---5---0-|x2


Verse
G|----------------|
D|----------------|
A|----------------|
D|2-----2---0-2---|x15

Rest 1 measure

Main Riff
G|----------------|--------------|----------------|----------------|
D|----------------|--------------|----------------|----------------|
A|----------------|--------------|----------------|----------------|
D|0-5---0-2---2-2-|0-5-5-0-2-----|0-5---0-2---2-2-|0-7-7---5---5-5-|x2

Pre-Verse (Bass Synth) Optional
G|------------------------------------------------------------------|
D|------------------------------------------------------------------|
A|------------------------------------------------------------------|
D|--2---2---5---0---2---2---5---0---2---2---5---0---7-7---5---5---0-|x2

Verse
G|----------------|
D|----------------|
A|----------------|
D|2-----2---0-2---|x6

Rest 2 Measures

Main Riff
G|----------------|--------------|----------------|----------------|
D|----------------|--------------|----------------|----------------|
A|----------------|--------------|----------------|----------------|
D|0-5---0-2---2-2-|0-5-5-0-2-----|0-5---0-2---2-2-|0-7-7---5---5-5-|x3

G|----------------|--------------|----------------|------------------------------|
D|----------------|--------------|----------------|------------------------------|
A|----------------|--------------|----------------|------------------------------|
D|0-5---0-2---2-2-|0-5-5-0-2-----|0-5---0-2---2-2-|0-7-7---7\-----------------xx-|

Outro
G|----------------|--------------|----------------|-----------------------------|
D|----------------|--------------|----------------|-----------------------------|
A|----------------|--------------|----------------|-----------------------------|
D|----------------|--------------|----------------|----------2-2-0-2------------|



| /  slide up
| \  slide down
| h  hammer-on
| p  pull-off
| ~  vibrato
| +  harmonic
| x  Mute note
===============================================================================
Show more