-------------------------------------------------------------------------------
			     CARAVAN - Blur
-------------------------------------------------------------------------------

Tabbed By : TomleHat
e-mail: thom25j@yahoo.co.uk

Tuning: Standard

Very simple song, just verses and choruses for the bass. You can add the 
odd fill here and there but this is the minimalist way it's played on the album

VERSE:
G|--------------------------------|
D|--------------------------------|
A|-5/7------7/9-----------------7-|
E|-------7--------7\0--0-----7----|

G|------------------------------------------|
D|------------------------------------------|
A|-5/7------7/9--------------5h7-5----------|
E|-------7--------7\0--0------------7--5--3-|

VERSE END:
G|-------------------------------------------------|
D|-------------------------------------------------|
A|-5/7------7/9-------9/10----5h7--5---------------|
E|-------7--------7-------------------7--5--0------|

CHORUS:
G|----------------------------------------------------|
D|----------------------------------------------------|
A|---------------3----3-2----2-3----3-2----2-3----3-2-|
E|-3----3-5----5--------------------------------------|

CHORUS END:
G|-------------------------------------------|
D|-------------------------------------------|
A|-------------------------------------------|
E|-3/10--------10--------10--------10--------|


| /  slide up
| \  slide down
| h  hammer-on
===============================================================================
Show more