• Song:

    Sunny

  • Artist:

    Bobby Hebb

  • Album:

    Soul Legend

Song:	Sunny
Artist:	Bobby Hebb

TABr:DokleVishe@Yahoo.co.uk
	
  This is a lovely easy-listening song that can be very nicely used for old-timers
gigs (Where the money is ;) ).  It's also fairly easy so it can be useful to beginners
for practice.


G|----------------|----------------|5-----5-5-----5-|--------4-----4-|
D|2-----2-2-----2-|5-----5-5-----5-|----------------|4-----4---------|
A|----------------|--------------- |----------------|----------------|x2
E|----------------|----------------|----------------|----------------|


G|----------------|----------------|5-----5-5-----5-|----------------|
D|2-----2-2-----2-|5-----5-5-----5-|----------------|3-----3-3-----3-|
A|----------------|--------------- |----------------|----------------|
E|----------------|----------------|----------------|----------------|

                                                     ________________
                                                    |.1
G|----------------|4-----4-4-----4-|----------------|----------------|
D|4-----4-4-----4-|----------------|2-----2-2-----2-|2-----2-2-----2-|
A|----------------|--------------- |----------------|----------------|
E|----------------|----------------|----------------|----------------|

  ________________
 |.2
G|--5-5-5-5-5-5-5-|
D|----------------|
A|----------------|
E|----------------|

  The rest are modulations of the above tabs.  For all of you that don't know
what modulations are simply apply the function f(x)=x+1 to the fret numbers, in
other words shift all by one fret right.
Show more