• Song:

    Sunny

  • Artist:

    Bobby Hebb

  • Album:

    Soul Legend

--------------------------------------

                           BOBBY HEBB - SUNNY
                            Released on 1966

                 --------------------------------------





    Sunny, yesterday my life was filled with rain
    Sunny, you smiled at me and really eased the pain
    The dark days are gone, and the bright days are here
    My Sunny one shines so sincere
    Sunny one so true, I love you

    Sunny, thank you for the sunshine bouquet
    Sunny, thank you for the love you brought my way
    You gave to me your all and all
    Now I feel ten feet tall
    Sunny one so true, I love you

    Sunny, thank you for the truth you let me see
    Sunny, thank you for the facts from A to C
    My life was torn like a wind-blown sand
    And the rock was formed when you held my hand
    Sunny one so true, I love you

    Sunny, thank you for the smile upon your face
    Sunny, thank you, thank you for the gleam that shows its grace
    You're my spark of nature's fire
    You're my sweet complete desire
    Sunny one so true, I love you

    Sunny, yesterday my life was filled with rain
    Sunny, you smiled at me and really, really eased the pain
    The dark days are gone, and the bright days are here
    My Sunny one shines so sincere
    Sunny one so true, I love you





     VERSE
     00:01

  G|---------------------------------|---------------------------------|
  D|---------------------------------|-5-----------5---5-----------5---|
  A|-7-----------7---7-----------7---|---------------------------------|
  E|---------------------------------|---------------------------------|





  G|-5-----------5---5-----------5---|-----------------4-----------4---|
  D|---------------------------------|-4-----------4-------------------|
  A|---------------------------------|---------------------------------|
  E|---------------------------------|---------------------------------|





  G|---------------------------------|---------------------------------|
  D|---------------------------------|-5-----------5---5-----------5---|
  A|-7-----------7---7-----------7---|---------------------------------|
  E|---------------------------------|---------------------------------|





  G|-5-----------5---5-----------5---|-----------------4-----------4---|
  D|---------------------------------|-4-----------4-------------------|
  A|---------------------------------|---------------------------------|
  E|---------------------------------|---------------------------------|




     00:16

  G|---------------------------------|---------------------------------|
  D|---------------------------------|-5-----------5---5-----------5---|
  A|-7-----------7---7-----------7---|---------------------------------|
  E|---------------------------------|---------------------------------|





  G|-5-----------5---5-----------5---|---------------------------------|
  D|---------------------------------|-3-----------3---3-----------3---|
  A|---------------------------------|---------------------------------|
  E|---------------------------------|---------------------------------|




  
  G|---------------------------------|-4-----------4---4-----------4---|
  D|-4-----------4---4-----------4---|---------------------------------|
  A|---------------------------------|---------------------------------|
  E|---------------------------------|---------------------------------|





  G|---------------------------------|---------------------------------|
  D|---------------------------------|---------------------------------|
  A|-7-----------7---7-----------7---|-7-----------7---7-------7-------|
  E|---------------------------------|---------------------------------|





     VERSE
     00:31

  G|---------------------------------|---------------------------------|
  D|---------------------------------|-5-----------5---5-----------5---|
  A|-7-----------7---7-----------7---|---------------------------------|
  E|---------------------------------|---------------------------------|





  G|-5-----------5---5-----------5---|-----------------4-----------4---|
  D|---------------------------------|-4-----------4-------------------|
  A|---------------------------------|---------------------------------|
  E|---------------------------------|---------------------------------|





  G|---------------------------------|---------------------------------|
  D|---------------------------------|-5-----------5---5-----------5---|
  A|-7-----------7---7-----------7---|---------------------------------|
  E|---------------------------------|---------------------------------|





  G|-5-----------5---5-----------5---|-----------------4-----------4---|
  D|---------------------------------|-4-----------4-------------------|
  A|---------------------------------|---------------------------------|
  E|---------------------------------|---------------------------------|




     00:46

  G|---------------------------------|---------------------------------|
  D|---------------------------------|-5-----------5---5-----------5---|
  A|-7-----------7---7-----------7---|---------------------------------|
  E|---------------------------------|---------------------------------|





  G|-5-----------5---5-----------5---|---------------------------------|
  D|---------------------------------|-3-----------3---3-----------3---|
  A|---------------------------------|---------------------------------|
  E|---------------------------------|---------------------------------|





  G|---------------------------------|-4-----------4---4-----------4---|
  D|-4-----------4---4-----------4---|---------------------------------|
  A|---------------------------------|---------------------------------|
  E|---------------------------------|---------------------------------|





  G|---------------------------------|-----5---5---5---5---5---5---5---|
  D|---------------------------------|---------------------------------|
  A|-7-----------7---7-----------7---|-7-------------------------------|
  E|---------------------------------|---------------------------------|





     VERSE
     01:01

  G|---------------------------------|---------------------------------|
  D|---------------------------------|-6-----------6---6-----------6---|
  A|-8-----------8---8-----------8---|---------------------------------|
  E|---------------------------------|---------------------------------|





  G|-6-----------6---6-----------6---|-----------------5-----------5---|
  D|---------------------------------|-5-----------5-------------------|
  A|---------------------------------|---------------------------------|
  E|---------------------------------|---------------------------------|





  G|---------------------------------|---------------------------------|
  D|---------------------------------|-6-----------6---6-----------6---|
  A|-8-----------8---8-----------8---|---------------------------------|
  E|---------------------------------|---------------------------------|





  G|-6-----------6---6-----------6---|-----------------5-----------5---|
  D|---------------------------------|-5-----------5-------------------|
  A|---------------------------------|---------------------------------|
  E|---------------------------------|---------------------------------|




     01:16

  G|---------------------------------|---------------------------------|
  D|---------------------------------|-6-----------6---6-----------6---|
  A|-8-----------8---8-----------8---|---------------------------------|
  E|---------------------------------|---------------------------------|





  G|-6-----------6---6-----------6---|---------------------------------|
  D|---------------------------------|-4-----------4---4-----------4---|
  A|---------------------------------|---------------------------------|
  E|---------------------------------|---------------------------------|





  G|---------------------------------|-5-----------5---5-----------5---|
  D|-5-----------5---5-----------5---|---------------------------------|
  A|---------------------------------|---------------------------------|
  E|---------------------------------|---------------------------------|





  G|---------------------------------|-----6---6---6---6---6---6---6---|
  D|---------------------------------|---------------------------------|
  A|-8-----------8---8-----------8---|-8-------------------------------|
  E|---------------------------------|---------------------------------|





     VERSE
     01:31

  G|---------------------------------|---------------------------------|
  D|---------------------------------|-7-----------7---7-----------7---|
  A|-9-----------9---9-----------9---|---------------------------------|
  E|---------------------------------|---------------------------------|





  G|-7-----------7---7-----------7---|-----------------6-----------6---|
  D|---------------------------------|-6-----------6-------------------|
  A|---------------------------------|---------------------------------|
  E|---------------------------------|---------------------------------|





  G|---------------------------------|---------------------------------|
  D|---------------------------------|-7-----------7---7-----------7---|
  A|-9-----------9---9-----------9---|---------------------------------|
  E|---------------------------------|---------------------------------|





  G|-7-----------7---7-----------7---|-----------------6-----------6---|
  D|---------------------------------|-6-----------6-------------------|
  A|---------------------------------|---------------------------------|
  E|---------------------------------|---------------------------------|




     01:46

  G|---------------------------------|---------------------------------|
  D|---------------------------------|-7-----------7---7-----------7---|
  A|-9-----------9---9-----------9---|---------------------------------|
  E|---------------------------------|---------------------------------|





  G|-7-----------7---7-----------7---|---------------------------------|
  D|---------------------------------|-5-----------5---5-----------5---|
  A|---------------------------------|---------------------------------|
  E|---------------------------------|---------------------------------|





  G|---------------------------------|-6-----------6---6-----------6---|
  D|-6-----------6---6-----------6---|---------------------------------|
  A|---------------------------------|---------------------------------|
  E|---------------------------------|---------------------------------|





  G|---------------------------------|-----7---7---7---7---7---7---7---|
  D|---------------------------------|---------------------------------|
  A|-9-----------9---9-----------9---|-9-------------------------------|
  E|---------------------------------|---------------------------------|





     VERSE
     02:01

  G|---------------------------------|---------------------------------|
  D|---------------------------------|-8-----------8---8-----------8---|
  A|-10----------10--10----------10--|---------------------------------|
  E|---------------------------------|---------------------------------|





  G|-8-----------8---8-----------8---|-----------------7-----------7---|
  D|---------------------------------|-7-----------7-------------------|
  A|---------------------------------|---------------------------------|
  E|---------------------------------|---------------------------------|





  G|---------------------------------|---------------------------------|
  D|---------------------------------|-8-----------8---8-----------8---|
  A|-10----------10--10----------10--|---------------------------------|
  E|---------------------------------|---------------------------------|





  G|-8-----------8---8-----------8---|-----------------7-----------7---|
  D|---------------------------------|-7-----------7-------------------|
  A|---------------------------------|---------------------------------|
  E|---------------------------------|---------------------------------|




     02:16

  G|---------------------------------|---------------------------------|
  D|---------------------------------|-8-----------8---8-----------8---|
  A|-10----------10--10----------10--|---------------------------------|
  E|---------------------------------|---------------------------------|





  G|-8-----------8---8-----------8---|---------------------------------|
  D|---------------------------------|-6-----------6---6-----------6---|
  A|---------------------------------|---------------------------------|
  E|---------------------------------|---------------------------------|





  G|---------------------------------|-7-------------------------------|
  D|-7-----------7---7-----------7---|---------------------------------|
  A|---------------------------------|---------------------------------|
  E|---------------------------------|---------------------------------|





     OUTRO
     02:27

  G|---------------------------------|-5-----------5---7-----------7---|
  D|-5-----------5---5-----------5---|---------------------------------|
  A|---------------------------------|---------------------------------|
  E|---------------------------------|---------------------------------|





  G|---------------------------------|-5-----------5---7-----------7---|
  D|-5-----------5---5-----------5---|---------------------------------|
  A|---------------------------------|---------------------------------|
  E|---------------------------------|---------------------------------|





  G|---------------------------------|-5-----------5---7-----------7---|
  D|-5-----------5---5-----------5---|---------------------------------|
  A|---------------------------------|---------------------------------|
  E|---------------------------------|---------------------------------| .....
Show more