• Song:

    Always Like This

  • Artist:

    Bombay Bicycle Club

  • Album:

    Always Like This

About time this was worked out. sounds right, For any comments, questions or 
suggestions, just post a comment or silly_timmy@hotmail.co.uk


Listen to figure out timing
Main Riff

   1        2        3        4
|---------------------------------------|
|---------------------------------------|
|----------10p8-------------------------|
|----13------------------11--13---------|
|---------8------11h13------------------|
|--12-----------------------------------|
    1       2        3        4                                      
|---------------------------------------|
|---------------------------------------|
|---------10p8--------------------------|
|-------------------10--------11--------|
|--9----9---------8------8--------------|
|---------------------------------------|
Show more