• Song:

    Cancel On Me

  • Artist:

    Bombay Bicycle Club

  • Album:

    The Boy I Used to Be (E...

Tuning: standard

G|--------------------------------------------------------------------------|
D|--------------------------------------------------------------------------|
A|---77777777777-----------------7777777777--------4444444-22222------------|
E|---------------222222222--------------------------------------------------|
chorus (not so sure about this part)
G|--------------------------------------------------------------------------|
D|--------------------------------------------------------------------------|
A|--------------------------------------------------------------------------|
E|--0000000000------77-5555-77-5555-----------------------------------------|

G|-------------------------66-44--------------------------------------------|
D|------------------444444-------4------------------------------------------|
A|--7777777--------------------------9999999-----444444-22222---------------|
E|--------------------------------------------------------------------------|

brigde (dreamin' of you rushin' up to me...)
G|--------------------------------------------------------------------------|
D|-----------9---9---9---9-----7---7---7---7--------------------------------|
A|---------7---7---7---7-----0---0---0---0----------------------------------|
E|--------------------------------------------------------------------------|
Show more