• Song:

    Fairytale Lullaby

  • Artist:

    Bombay Bicycle Club

  • Album:

    Flaws

FAIRYTALE LULLABY – Bombay Bicycle Club
                                       Guitar Tab
                               Tabbed by calicoeannecash

DADF#AD tuning
Capo 4th fret
As Jack Steadman plays on the album Flaws, 2010.

Intro
|----4h5-4p0------0---0--|0-4h5-4p0------0---0--|
|---0--------0-----------|-0--------0-----------|
|--0-----------0-1---3---|------------0-1---3---|
|-0-----------------0---0|-----------------0---0|
|----------------2-2-4-4-|--------------2-2-4-4-|
|0-------0---------------|0-0---0---------------|

Verse One
If you want to ride a rainbow...
|0-4h5-4p0------0---0--|0-4h5-4p0------0---0--|0-4h5-4p0------0---0--|0-4h5-4p0------0---0--|
|-0--------0-----------|-0--------0-----------|-0--------0-----------|-0--------0-----------|
|------------0-1---3---|------------0-1---3---|------------0-1---3---|------------0-1---3---|
|-----------------0---0|-----------------0---0|-----------------0---0|-----------------0---0|
|--------------2-2-4-4-|--------------2-2-4-4-|--------------2-2-4-4-|--------------2-2-4-4-|
|0-0---0---------------|0-0---0---------------|0-0---0---------------|0-0---0---------------|

Chorus
				    And if you want your friends to come...
|0--------0-2-|4-2-0-----------|----------------|2---2---2---2---|
|-0------0----|-----0----902---|0---2---0---2---|-4---4---4---4--|
|--0----0-----|---------0---0--|-0---0---0---0--|--3---3---3---3-|
|---0-------2-|4-2-0---9-----0-|--0---0---0---0-|---0---0---0---0|
|-------------|---------------2|---0---2---0---2|----------------|
|0---0-0------|------9---------|----------------|----------------|

|----4h5-4p0------0---0--|0-4h5p4h5p4p0------0---0--|
|---0--------0-----------|-0------------0-----------|
|--0-----------0-1---3---|----------------0-1---3---|
|-0-----------------0---0|---------------------0---0|
|----------------2-2-4-4-|------------------2-2-4-4-|
|0-------0---------------|0-0-----------------------|

Verse Two
And if you want to catch a star...
|0-4h5-4p0------0---0--|0-4h5-4p0------0---0--|0-4h5-4p0------0---0--|0-4h5-4p0------0---0--|
|-0--------0-----------|-0--------0-----------|-0--------0-----------|-0--------0-----------|
|------------0-1---3---|------------0-1---3---|------------0-1---3---|------------0-1---3---|
|-----------------0---0|-----------------0---0|-----------------0---0|-----------------0---0|
|--------------2-2-4-4-|--------------2-2-4-4-|--------------2-2-4-4-|--------------2-2-4-4-|
|0-0---0---------------|0-0---0---------------|0-0---0---------------|0-0---0---------------|

Chorus
   And if you want your friends to come..
|0-------0---0---0---0---0--|2---2---2---2---|
|--0----2--0---2---0--0-2---|-4---4---4---4--|
|----0-----------------0----|--3---3---3---3-|
|------0--0---0---0---------|---0---0---0---0|
|-------2---0---2---0---2---|----------------|
|0--------------------------|----------------|

|----4h5-4p0------0---0--|0-4h5-4p0-----0---0--|
|---0--------0-----------|-0-------0-----------|
|--0-----------0-1---3---|-----------0-1---3---|
|-0-----------------0---0|----------------0---0|
|----------------2-2-4-4-|-------------2-2-4-4-|
|0-------0---------------|0-0---0--------------|

Verse Three
Bow your head and let your eyelids...
|0-4h5-4p0------0---0--|0-4h5-4p0------0---0--|0-4h5-4p0------0---0--|0-4h5-4p0------0---0--|
|-0--------0-----------|-0--------0-----------|-0--------0-----------|-0--------0-----------|
|------------0-1---3---|------------0-1---3---|------------0-1---3---|------------0-1---3---|
|-----------------0---0|-----------------0---0|-----------------0---0|-----------------0---0|
|--------------2-2-4-4-|--------------2-2-4-4-|--------------2-2-4-4-|--------------2-2-4-4-|
|0-0---0---------------|0-0---0---------------|0-0---0---------------|0-0---0---------------|

Chorus
				    And if you want your friends to come...
|0--------0-2-|4-2-0-----------|----------------|2---2---2---2---|
|-0------0----|-----0----902---|0---2---0---2---|-4---4---4---4--|
|--0----0-----|---------0---0--|-0---0---0---0--|--3---3---3---3-|
|---0-------2-|4-2-0---9-----0-|--0---0---0---0-|---0---0---0---0|
|-------------|---------------2|---0---2---0---2|----------------|
|0---0-0------|------9---------|----------------|----------------|

|----4h5-4p0------0---0--|0-4h5-5p4p0-----0---0--|0-4-5-7p5p4p0-----0---0--|
|---0--------0-----------|-0---------0-----------|-0-----  ----0-----------|
|--0-----------0-1---3---|-------------0-1---3---|---------------0-1---3---|
|-0-----------------0---0|------------------0---0|--------------------0---0|
|----------------2-2-4-4-|---------------2-2-4-4-|-----------------2-2-4-4-|
|0-------0---------------|0-0---0----------------|0------------------------|

(Slowing down...)
|0-4h5p4h5p4p0------0---0--|----0-|
|-0------------0-----------|---0--|
|----------------0-1---3---|--0---|
|---------------------0---0|-0----|
|------------------2-2-4-4-|------|
|0-0-----------------------|0-----|

I was ill and bed-bound so decided to pick up the guitar.  Did this in 2 hours so there 
may still be mistakes, will be updating any corrections.
Show more