• Song:

    Flaws

  • Artist:

    Bombay Bicycle Club

  • Album:

    Ivy & Gold / Flaws

Band   : Bombay Bicycle Club
Song   : Flaws
Album  : Flaws

Tuning : Standard (EADGBe)

Capo   : 1st Fret

Notes  : It looks like I could of just put repeat markers on a lot
         of sections, but if you look closely there are run downs
         and slight differences here and there. You can get away
         with repeating yourself but if you want the bass notes etc
         so follow it carefully :)

Videos : http://www.youtube.com/watch?v=W5LG1ZMIu6M


---------------
INTRO
---------------

e|-------------|-------------|-------------| /-----
B|---7-------7-|---7-------7-|---7-------7-|       |
G|-------0-----|-------0-----|-------0-----|       |
D|---7-----7---|---7-----7---|---7-----7---|       |
A|-7-----------|-7-----------|-5-----------|       |
E|-----7-------|-----7-------|-----5-------|       |
                                                   |----- x2
e|-------------|-------------|-------------|       |
B|---0---0---0-|---0---0---0-|---0---0---0-|       |
G|---0-----0---|---0-----0---|---0-----0---|       |
D|-0-----------|-0-----------|-0-----------|       |
A|-------------|-------------|-------------|       |
E|-----3-------|-----3-------|-----3-------| \-----


---------------
VERSE ONE
---------------

e|-------------|-------------|-------------| /-----
B|---7-------7-|---7-------7-|---7-------7-|       |
G|-------0-----|-------0-----|-------0-----|       |
D|---7-----7---|---7-----7---|---7-----7---|       |
A|-7-----------|-7-----------|-5-----------|       |
E|-----7-------|-----7-------|-----5-------|       |
                                                   |----- x2
e|-------------|-------------|-------------|       |
B|---0---0---0-|---0---0---0-|---0---0---0-|       |
G|---0-----0---|---0-----0---|---0-----0---|       |
D|-0-----------|-0-----------|-0-----------|       |
A|-------------|-------------|-------------|       |
E|-----3-------|-----3-------|-----3-------| \-----

e|-------------|-------------|-------------|
B|---7-------7-|---7-------7-|---7-------7-|
G|-------0-----|-------0-----|-------0-----|
D|---7-----7---|---7-----7---|---7-----7---|
A|-7-----------|-7-----------|-5-----------|
E|-----7-------|-----7-------|-----5-------|

e|-------------|-------------|
B|---0---0---0-|---0---0---0-|
G|---0-----0---|---0-----0---|
D|-0-----------|-0-----------|
A|-------------|-------------|
E|-----3-------|-----3-------|


---------------
CHORUS
---------------

e|---------|---------|---------|---------| /-----
B|-------0-|-------0-|-------0-|-------0-|       |
G|---0-----|---0-----|---0-----|---0-----|       |
D|-----4---|-----4---|-----4---|-----4---|       |
A|---------|---------|---------|---------|       |
E|-3-------|-3-------|-3-------|-3-------|       |
                                                 |
e|---------|---------|                           |
B|-------0-|-------0-|                           |
G|---0-----|---0-----|                           |----- x2
D|-----4---|-----4---|                           |
A|-3-------|-3-------|                           |
E|---------|---------|                           |
                                                 |
e|---------|---------|---------|---------|       |
B|-------0-|-------0-|-------0-|-------0-|       |
G|---0-----|---0-----|---0-----|---0-----|       |
D|-----4---|-----4---|-----4---|-----4---|       |
A|---------|---------|---------|---------|       |
E|-3-------|-3-------|-3-------|-3-------| \-----

e|---------|---------|---------|---------|
B|-------3-|-------0-|-------0-|-------0-|
G|---0-----|---0-----|---0-----|---0-----|
D|-----4---|-----4---|-----4---|-----4---|
A|---------|---------|---------|-2-------|
E|-0-------|-0-------|-0-------|---------|

e|---------|---------|
B|-------0-|-------0-|
G|---0-----|---0-----|
D|-----4---|-----4---|
A|-3-------|-3-------|
E|---------|---------|

e|-------------|-------------|-------------|
B|---3-------3-|---3-------3-|---3-------3-|
G|-------0-----|-------0-----|-------0-----|
D|---0-----0---|---0-----0---|---0-----0---|
A|-------------|-------------|-------------|
E|-3---3-------|-3---3-------|-3---3-------|

e|---------|---------|
B|-------3-|---------|
G|---0-----|---0---0-|
D|-----0---|---------|
A|---------|---------|
E|-3-------|-3---2---|


---------------
VERSE TWO
---------------

e|-------------|-------------|-------------|
B|---7-------7-|---7-------7-|---7-------7-|
G|-------0-----|-------0-----|-------0-----|
D|---7-----7---|---7-----7---|---7-----7---|
A|-------------|-7-----------|-5-----------|
E|-0---7-------|-----7-------|-----5-------|

e|-------------|-------------|-------------|
B|---0---0---0-|---0---0---0-|---0---0---0-|
G|---0-----0---|---0-----0---|---0-----0---|
D|-0-----------|-0-----------|-0-----------|
A|-------------|-------------|-------------|
E|-----3-------|-----3-------|-----3-------|

e|-------------|-------------|-------------|
B|---7-------7-|---7-------7-|---7-------7-|
G|-------0-----|-------0-----|-------0-----|
D|---7-----7---|---7-----7---|---7-----7---|
A|-------------|-7-----------|-5-----------|
E|-7---7-------|-----7-------|-----5-------|

e|-------------|-------------|-------------|
B|---0---0---0-|---0---0---0-|---0---------|
G|---0-----0---|---0-----0---|---0---0---0-|
D|-0-----------|-0-----------|-0-----------|
A|-------------|-------------|-------------|
E|-----3-------|-----3-------|-----3---2---|

e|-------------|-------------|-------------|
B|---7-------7-|---7-------7-|---7-------7-|
G|-------0-----|-------0-----|-------0-----|
D|---7-----7---|---7-----7---|---7-----7---|
A|-------------|-7-----------|-5-----------|
E|-0---7-------|-----7-------|-----5-------|

e|-------------|-------------|
B|---0---0---0-|---0---0---0-|
G|---0-----0---|---0-----0---|
D|-0-----------|-0-----------|
A|-------------|-------------|
E|-----3-------|-----3-------|


---------------
CHORUS TWO
---------------

e|---------|---------|---------|---------|
B|-------0-|-------0-|-------0-|-------0-|
G|---0-----|---0-----|---0-----|---0-----|
D|-----4---|-----4---|-----4---|-----4---|
A|---------|---------|---------|---------|
E|-3-------|-3-------|-3-------|-3-------|

e|---------|---------|
B|-------0-|-------0-|
G|---0-----|---0-----|
D|-----4---|-----4---|
A|-3-------|-3-------|
E|---------|---------|

e|---------|---------|---------|---------|
B|-------0-|-------0-|-------0-|-------0-|
G|---0-----|---0-----|---0-----|---0-----|
D|-----4---|-----4---|-----4---|-----4---|
A|---------|---------|---------|---------|
E|-3-------|-3-------|-3-------|-3-------|

e|---------|---------|---------|---------|
B|-------0-|-------0-|-------0-|-------0-|
G|---0-----|---0-----|---0-----|---0-----|
D|-----4---|-----4---|-----4---|-----4---|
A|---------|---------|---------|---------|
E|-3-------|-3-------|-3-------|-3-------|

e|---------|---------|
B|-------0-|-------0-|
G|---0-----|---0-----|
D|-----4---|-----4---|
A|-3-------|-3-------|
E|---------|---------|

e|---------|---------|---------|---------|
B|-------0-|-------0-|-------0-|---------|
G|---0-----|---0-----|---0-----|---0---0-|
D|-----4---|-----4---|-----4---|---------|
A|---------|---------|---------|---------|
E|-3-------|-3-------|-3-------|-3---2---|

e|---------|---------|---------|---------|
B|-------3-|-------3-|-------3-|-------3-|
G|---0-----|---0-----|---0-----|---0-----|
D|-----4---|-----4---|-----4---|-----4---|
A|---------|---------|---------|-2-------|
E|-0-------|-0-------|-0-------|---------|

e|---------|---------|
B|-------3-|-------3-|
G|---0-----|---0-----|
D|-----4---|-----4---|
A|-3-------|-3-------|
E|---------|---------|

e|-------------|-------------|
B|---3-------3-|---3-------0-|
G|---0---0-----|-------0-----|
D|---------4---|---2-----2---|
A|-------------|-------------|
E|-3---3-------|-3---3-------|

e|-------------|---------|
B|---3-------3-|-3-------|
G|-------0-----|-0-------|
D|---0-----0---|-0-------|
A|-------------|-2-------|
E|-3---3-------|-3-------|
Show more