• Song:

    Lamplight

  • Artist:

    Bombay Bicycle Club

  • Album:

    I Had The Blues But I S...

-----------------------------------------------------------------------------
                            Lamplight - Bombay Bicycle Club
-----------------------------------------------------------------------------


www.myspace.com/bombaybicycleclub
www.bombaybicycleclubmusic.com 


Tabbed By : Waswares


Tuning: Standard

Verse:

G|-----|-----------------------------------|
D|-----|--------------------------6-9-6----|
A|-----|-7-7-77-7-7-77-4-4-44-4-4-------9--|
E|-0~~~|-----------------------------------|

Chorus:

G|-------------------------|
D|-------------------------|
A|------------7777-7-7777--|
E|-5555-5-555--------------|

Verse:

G|-----------------------------------|
D|--------------------------6-9-6----|
A|-7-7-77-7-7-77-4-4-44-4-4-------9--|
E|-----------------------------------|

G|---------------------------------------------------|
D|---------------------------------------------9999--|
A|-------------7777-7-7777-------------7777-7--------|
E|-5555-5-5555-------------5555-5-5555---------------|

Chorus:

G|---------------------------------------------------|
D|---------------------------------------------9999--|
A|-------------7777-7-7777-------------7777-7--------|
E|-5555-5-5555-------------5555-5-5555---------------|

Bridge:

G|--------------------------------|
D|--------------------------------|
A|-7777-77-7-7777-7777-77-7-7777--|
E|--------------------------------|

G|-------------------------------------------------------|
D|-------------------------------------------------------|
A|-7777-77-7-7777-7777-77-7-7777-7777-77-7-7777-9---7----|
E|------------------------------------------------9---7--|

G|-------------------------------------------------------|
D|-------------------------------------------------------|
A|----------------------------------------------9---7----|
E|-0000-00-0-0000-0000-00-0-0000-0000-00-0-0000---9---7--|

Chorus:

G|-----------------------------------------------|--------------|
D|-----------------------------------9-9----9-9--|--------------|
A|----------------------------77-7-7-----77------|-7---9---7~~--|
E|-5-5-55-55-5-5-55-55-55-5-5--------------------|---7---9------|


| /  slide up
| \  slide down
| h  hammer-on
| p  pull-off
| ~  vibrato
| +  harmonic
| x  Mute note
=============================================================================
Show more