• Song:

    Magnet

  • Artist:

    Bombay Bicycle Club

  • Album:

    Magnet

-------------------------------------------------------------------------------
			     MAGNET - BOMBAY BICYCLE CLUB
-------------------------------------------------------------------------------
Tabbed by: DANIEL

Tuning:EADGBe

e|--6--4--2----------------------------------------------------------------------|
B|-----------2(s)4--4--4--4--4--4--4--4--4--4--4--4---X2-------------------------|
G|-------------------------------------------------------------------------------|
D|-------------------------------------------------------------------------------|
A|-------------------------------------------------------------------------------|
E|-------------------------------------------------------------------------------|

e|---------------------------------------------------------------------------|
B|--7--5--3------------------------------------------------------------------|
G|-----------2(s)4--4--4--4--4--4--4--4--4--4--4--4---X2---------------------|
D|---------------------------------------------------------------------------|
A|---------------------------------------------------------------------------|
E|---------------------------------------------------------------------------|


(s) - slide up
************************************
Show more