• Song:

    Shuffle

  • Artist:

    Bombay Bicycle Club

  • Album:

    Shuffle

Shuffle - Bombay Bicycle Club




Verse 1
G-----------12-12---------9-9-------12-12----------9-9--------------------|
D----------------12--12------9--9---------12--12------9--9----------------|
A------------------10----------7------------10----------7-----------------|
E-------------------------------------------------------------------------|

G-----------12-12---------9-9-------12-12----------9-9--------------------|
D----------------12--12------9--9---------12--12------9--9----------------|
A------------------10----------7------------10----------7-----------------|
E-------------------------------------------------------------------------|


Chorus 1
G-------------------------------------------------------------------------|
D-------------------------------------------------------------------------|
A----------------------7-7-7-7-7-7-7-7-5-5-5-5-5-5-5-5--------------------|
E------8-8-8-8-8-8-8-8---------------------------------5-5-5-5-5-5-5-5----|

G-------------------------------------------------------------------------|
D-------------------------------------------------------------------------|
A-----------------------7-7-7-7-7-7-7--5-5-5-5-5-5-5-5-5-5-5-5/17---------|
E-----8-8-8-8-8-8-8-8-8---------------------------------------------------|


Verse 2
G-----------12-12---------9-9-------12-12----------9-9--------------------|
D----------------12--12------9--9---------12--12------9--9----------------|
A------------------10----------7------------10----------7-----------------|
E-------------------------------------------------------------------------|

G-----------12-12---------9-9-------12-12----------9-9--------------------|
D----------------12--12------9--9---------12--12------9--9----------------|
A------------------10----------7------------10----------7-----------------|
E-------------------------------------------------------------------------|

G-----------12-12---------9-9-------12-12----------9-9-101112-------------|
D----------------12--12------9--9---------12--12-------------121110987----|
A------------------10----------7------------10----------------------------|
E-------------------------------------------------------------------------|


Chorus 2
G--------------------------------------7-9-9-9-9-9-9-9-9-9-9-9-9-7-7-7-7--|
D-7-7-7-7-7-7-7-9-10-10-10-10-10-10-10------------------------------------|
A-------------------------------------------------------------------------|
E--------------5----------------------8-----------------------------------|

G-------------------------------------------------------------------------|
D-10-10-10-10-10-10-10-10-5-5-5-5-5-5-5-5---------------------------------|
A-----------------------------------------7-7-7-7-7-7-7-7-7-7-7-7-7-7-5-5-|
E-------------------------------------------------------------------------|

G-------------------------------------------------------------------------|
D-------------------------------------------------------------------------|
A-----------------5-5-5-5-5-5-5-5-----------------------------------------|
E-8-8-8-8-8-8-8-8-----------------7-7-7-7-7-7-7-7-8-8-8-8-8-8-8-8---------|

G-------------------------------------------------------------------------|
D-------------------------------------------------------------------------|
A---------------------------------7-7-7-7-7-7-7-7-7-7-7-7-7-7-5-5---------|
E-8-8-8-8-8-8-8-8-3-3-3-3-3-3-3-3-----------------------------------------|


Bridge
G-------------------------------------------------------------------------|
D-------------------------------------------------------------------------|
A-10----/15----7----5----7----3----/10----5-------------------------------|
E-------------------------------------------------------------------------|

G-------------------------------------------------------------------------|
D-------------------------------------------------------------------------|
A-10----/15----7----5----7----3----/10----5-------------------------------|
E-------------------------------------------------------------------------|

G-------------------------------------------------------------------------|
D-------------------------------------------------------------------------|
A-10----/15----7----5----7----3----/10----5-------------------------------|
E-------------------------------------------------------------------------|

G-----------12-12---------9-9-------12-12----------9-9--------------------|
D----------------12--12------9--9---------12--12------9--9----------------|
A------------------10----------7------------10----------7-----------------|
E-------------------------------------------------------------------------|

G-----------12-12---------9-9-------12-12----------9-9--------------------|
D----------------12--12------9--9---------12--12------9--9----------------|
A------------------10----------7------------10----------7-----------------|
E-------------------------------------------------------------------------|


Chorus 3
G-------------------------------------------------------------------------|
D-------------------------------------------------------------------------|
A----------------------7-7-7-7-7-7-7-7-5-5-5-5-5-5-5-5--------------------|
E------8-8-8-8-8-8-8-8---------------------------------5-5-5-5-5-5-5-5----|

G-------------------------------------------------------------------------|
D-------------------------------------------------------------------------|
A-----------------------7-7-7-7-7-7-7--5-5-5-5-5-5-5-5-5-5-5-5/17\--------|
E-----8-8-8-8-8-8-8-8-8---------------------------------------------------|

G-------------------------------------------------------------------------|
D-------------------------------------------------------------------------|
A----------------------7-7-7-7-7-7-7-7-5-5-5-5-5-5-5-5--------------------|
E------8-8-8-8-8-8-8-8---------------------------------5-5-5-5-5-5-5-5----|

G-------------------------------------------------------------------------|
D-------------------------------------------------------------------------|
A-----------------------7-7-7-7-7-7-7--5-5-5-5-5-5-5-5-5-5-5-5/17\10------|
E-----8-8-8-8-8-8-8-8-8---------------------------------------------------|



Bada Bing, Bada Boom, Done!
Show more