• Song:

    The Giantess

  • Artist:

    Bombay Bicycle Club

  • Album:

    I Had The Blues But I S...

------------------------------------------------------------------------------
			     The Giantess - Bombay Bicycle Club
------------------------------------------------------------------------------
Tabbed by Samm8

Tuning DADF#Be
Capo 2nd Fret
Intro

e |---------------------------------------------------------------------------|
B |---------------------------------------------------------------------------|
F#|----3-6-3--------------0---------------------------------------------------|
D |---0------4---------0h2-2--0-----------------------------------------------|
A |--0---------2-0----2------2------------------------------------------------|
D |-0----------------2--------------------------------------------------------|

repeat twice, then

e |---------------------------------------------------------------------------|
B |----------------------2------3---5/7\5-3-0-1-2-3----------------------------|
F#|----3-6-3------------3------5----------------------------------------------|
D |---0------4---------2------4-----------------------------------------------|
A |--0---------2-0----0------2------------------------------------------------|
D |-0----------------0------2-------------------------------------------------|

p.s this is my first tab..

| /  slide up
| \  slide down
| h  hammer-on
| p  pull-off
| ~  vibrato
| +  harmonic
| x  Mute note
===============================================================
Show more