• Song:

    Valami Amerika

  • Artist:

    Bon-bon

-------------------------------------------------------------------------------
                            Valami Amerika - Bon-Bon
-------------------------------------------------------------------------------

Tabbed by: TBone142
e-mail: tbone142@freemail.hu

Tuning: standard BEADG

Intro (00:07-)
G|-------------------------------------------------------------------------|
D|-------------------------------------------------------------------------|
A|------------3---7-7-6-5--3----------------3---7-7-6-5--3-----------------|x2
E|-5--5---3-5---5------------5-3-5--5---3-5---5------------5-3-------------|
B|------5-----------------------------5------------------------------------|

Verse:
G|---------------------------------------------------------------------------|
D|---------------------------------------------------------------------------|
A|---------------------------------------------------------------------------|
E|-5-5-5-5-5-5-5-5--------------------5-5-5-5-5-5-5-5------------------------|
B|-----------------5-5-5-3--3-3-3(/5)-----------------5-5-5-3--3-3--(/5)-----|

G|---------------------------------------------------------------------------|
D|---------------------------------------------------------------------------|
A|---------------------------------------------------------------------------|
E|-5-5-5-5-5-5-5------------------------5-5-5-5-5-5--------------------------|
B|---------------5--5-5-3--3-3--(/5)----------------5--5-5-3--3-3-(/5)-------|

Pre-chorus:
G|---------------------------------------------------------------------------|
D|---------------------------------------------------------------------------|
A|---------------------------------------------------------------------------|
E|---------------------------------------------------------------------------|
B|-6-6-6-6-6-6-6-6-6-6-6-6-6-5-4-3--3-3-3-3-3-3-3-3-3-3-3-3-6-7--------------|

G|---------------------------------------------------------------------------|
D|---------------------------------------------------------------------------|
A|----------------------------5----------------------------------------------|
E|-5--5-5-5-5-5-5-5-5-5-5-5-5---5-3--3-3-3-3-3-3-3-3-------------------------|
B|---------------------------------------------------------------------------|

Chorus:
G|---------------------------------------------------------------------------|
D|---------------------------------------------------------------------------|
A|---------------------------------------------------------------------------|
E|--------8-8-8-8---------5-5------------8-8-8-8-------5-5-5-----------------|
B|-6--6-6---------8-8-8-8-----8-8-6--6-6---------8-8-8-------8-8-------------|

G|---------------------------------------------------------------------------|
D|---------------------------------------------------------------------------|
A|---------------------------------------------------------------------------|
E|---------8-8-8-8---------5-5-----------------------------------------------|
B|-6-6-6-6---------8-8-8-8-----8-8-6-6--6-6-6-6-6-6-6-6----------------------|

Bridge:
G|---------------------------------------------------------------------------|
D|---------------------------------------------------------------------------|
A|------------3---7-7-6-5--3----------------3---7-7-6-5--3-------------------|
E|-5--5---3-5---5------------5-3-5--5---3-5---5------------5-3---------------|
B|------5-----------------------------5--------------------------------------|


Verse:
G|---------------------------------------------------------------------------|
D|---------------------------------------------------------------------------|
A|---------------------------------------------------------------------------|
E|-5-5-5-5-5-5-5-5--------------------5-5-5-5-5-5-5-5------------------------|
B|-----------------5-5-5-3--3-3-3(/5)-----------------5-5-5-3--3-3--(/5)-----|

G|---------------------------------------------------------------------------|
D|---------------------------------------------------------------------------|
A|---------------------------------------------------------------------------|
E|-5-5-5-5-5-5-5------------------------5-5-5-5-5-5--------------------------|
B|---------------5--5-5-3--3-3--(/5)----------------5--5-5-3--3-3-(/5)-------|

Pre-chorus:
G|---------------------------------------------------------------------------|
D|---------------------------------------------------------------------------|
A|---------------------------------------------------------------------------|
E|---------------------------------------------------------------------------|
B|-6-6-6-6-6-6-6-6-6-6-6-6-6-5-4-3--3-3-3-3-3-3-3-3-3-3-3-3-6-7--------------|

G|---------------------------------------------------------------------------|
D|---------------------------------------------------------------------------|
A|----------------------------5----------------------------------------------|
E|-5--5-5-5-5-5-5-5-5-5-5-5-5---5-3--3-3-3-3-3-3-3-3-------------------------|
B|---------------------------------------------------------------------------|

Chorus:
G|---------------------------------------------------------------------------|
D|---------------------------------------------------------------------------|
A|---------------------------------------------------------------------------|
E|--------8-8-8-8---------5-5------------8-8-8-8-------5-5-5-----------------|
B|-6--6-6---------8-8-8-8-----8-8-6--6-6---------8-8-8-------8-8-------------|

G|---------------------------------------------------------------------------|
D|---------------------------------------------------------------------------|
A|---------------------------------------------------------------------------|
E|---------8-8-8-8---------5-5-----------------------------------------------|
B|-6-6-6-6---------8-8-8-8-----8-8-6-6--6-6-6-6-6-6-6-6----------------------|

Bridge:
G|---------------------------------------------------------------------------|
D|---------------------------------------------------------------------------|
A|---------------------------------------------------------------------------|
E|---------------------------------------------------------------------------|
B|-3--3/5/6----8/10---8---3--3/5/6---12------5-5-5-5-5-5-5-------------------|


Solo:
G|---------------------------------------------------------------------------|
D|---------------------------------------------------------------------------|
A|---------------------------------------------------------------------------|
E|-5-5-5-5-5-5-5-5--------------------5-5-5-5-5-5-5-5------------------------|
B|-----------------5-5-5-3--3-3-3(/5)-----------------5-5-5-3--3-3--(/5)-----|

G|---------------------------------------------------------------------------|
D|---------------------------------------------------------------------------|
A|---------------------------------------------------------------------------|
E|-5-5-5-5-5-5-5------------------------5-5-5-5-5-5--------------------------|
B|---------------5--5-5-3--3-3--(/5)----------------5--5-5-3--3-3-(/5)-------|

Pre-chorus:
G|---------------------------------------------------------------------------|
D|---------------------------------------------------------------------------|
A|---------------------------------------------------------------------------|
E|---------------------------------------------------------------------------|
B|-6-6-6-6-6-6-6-6-6-6-6-6-6-5-4-3--3-3-3-3-3-3-3-3-3-3-3-3-6-7--------------|

G|---------------------------------------------------------------------------|
D|---------------------------------------------------------------------------|
A|----------------------------5----------------------------------------------|
E|-5--5-5-5-5-5-5-5-5-5-5-5-5---5-3--3-3-3-3-3-3-3-3-------------------------|
B|---------------------------------------------------------------------------|

Chorus:
G|---------------------------------------------------------------------------|
D|---------------------------------------------------------------------------|
A|---------------------------------------------------------------------------|
E|--------8-8-8-8---------5-5------------8-8-8-8-------5-5-5-----------------|
B|-6--6-6---------8-8-8-8-----8-8-6--6-6---------8-8-8-------8-8-------------|

G|---------------------------------------------------------------------------|
D|---------------------------------------------------------------------------|
A|---------------------------------------------------------------------------|
E|---------8-8-8-8---------5-5-----------------------------------------------|
B|-6-6-6-6---------8-8-8-8-----8-8-6-6--6-6-6-6-6-6-6-6----------------------|


===============================================================================
Notes: 

This song is the theme song of a Hungarian movie (Valami Amerika) from a
Hungarian band Bon-Bon.

YouTube link: http://www.youtube.com/watch?v=L-C71SDxhjU

The band's (Hungarian) homepage: http://bonbon.egyuttes.info/

If You have problems with this tab, write Me a mail what's wrong with it
instead of giving it a bad rating! It'd be better for everyone! Thx!


| /  slide up
| \  slide down
| h  hammer-on
| p  pull-off
| ~  vibrato
| +  harmonic
| x  Mute note
===============================================================================
Show more