Seen a few tabs with weird tunings, this is how I do it in standard:

Capo 4

Intro/verse (there is some variation):
Let ring throughout, fingerpick:

e||------------|--------------|------------|----------------|
B||------------|----------0---|--------0---|------2h4b5h4h2-|
G||--------1---|------1h3---3-|------3-----|----------------|
D||------4-----|--------------|------------|----------------|
A||------------|--------------|------------|----------------|
E||0---0-------|2---2---------|4---4-------|----------------|

|------------|--------------|------------|----------------||
|0-----------|----------0---|--------0---|----------------||
|--------1---|------1h3---3-|------3-----|----------------||
|------4-----|--------------|------------|----------------||
|------------|--------------|------------|----------------||
|0---0-------|2---2---------|4---4-------|----------------||

Outro:
Can use a pick now, it's just barre chords I think:

e||4-4---4-4-4-4---|4-4---4-4-4-4---|7-7---7-7-7-7---|2---0-----------|
B||5-5---5-5-5-5---|4-4---4-4-4-4---|7-7---7-7-7-7---|2---0-----------|
G||8-8---8-8-8-8---|4-4---4-4-4-4---|8-8---8-8-8-8---|3---1-----1-----|
D||6-6---6-6-6-6---|8-8---8-8-8-8---|1111--11111111--|6---4---4-------|
A||4-4---4-4-4-4---|6-6---6-6-6-6---|9-9---9-9-9-9---|4---2-----------|
E||----------------|4-4---4-4-4-4---|7-7---7-7-7-7---|2---0-----------|

e||4-4---4-4-4-4---|4-4---4-4-4-4---|7-7---7-7-7-7---|2---0-----------------------------------||
B||5-5---5-5-5-5---|4-4---4-4-4-4---|7-7---7-7-7-7---|2---0-----1-------0---0---0-0-0-0---0---||
G||8-8---8-8-8-8---|4-4---4-4-4-4---|8-8---8-8-8-8---|3---1---4---------3b4-3b4-4-4-4-4---3---||
D||6-6---6-6-6-6---|8-8---8-8-8-8---|1111--11111111--|6---4-----------------------------------||
A||4-4---4-4-4-4---|6-6---6-6-6-6---|9-9---9-9-9-9---|4---2-----------------------------------||
E||----------------|4-4---4-4-4-4---|7-7---7-7-7-7---|2---0-----------------------------------||

About it I think, a little rough but the basis is there
Show more