Bongzilla - Melovespot
Methods For Attaining Extreme Altitudes EP (1998)
Tabbed By ruker
Tuned Down 2.5 Steps BEADF#B

-------------
Key:
-------------
. Palm Mute
~ Vibrato
h Hammer-On
p Pull-Off
b Bend
r Release
/ Slide Up
 Slide Down
-------------



Riff A(0:01) (x02220@1)                                             6x
||-----------------------------------------------------------||
||*---------------------------------------------------------*||
||-----------------------------------------------------------||
||-----------------------------------------------------------||
||*-9--8--7--5--2--5----7--5----9--8--7--5--2--5----8--7----*||
||--7--6--5--3--0--3----5--3----7--6--5--3--0--3----6--5-----||



Riff B (1:22)
||-------------------------------------------------------------------------------------------||
||*-----------------------------------------------------------------------------------------*||
||-------------------------------------------------------------------------------------------||
||-------------------------------------------------------------------------------------------||
||*-2-2-2-5--2--8-7-5-7--5--2-2-2-5--2--8-7----2-2-2-5--2--8-7-5-7--5--2-2-2-5--2--8-7-5-7--*||
||--0-0-0-3--0--6-5-3-5--3--0-0-0-3--0--6-5----0-0-0-3--0--6-5-3-5--3--0-0-0-3--0--6-5-3-5---||



Fill 1 (1:44)
||-----------||
||-----------||
||------2----||
||-5----2----||
||-5----0----||
||-3---------||



Riff C(1:47) (x32010@1)           6x
||-------------------------||
||*-----------------------*||
||-------------------------||
||--2-5-5-2-5-5-2-55555-5--||
||*-0-3-3-0-3-3-0-33333-3-*||
||-------------------------||



Fill 2a (2:14)
||--------------||
||--------------||
||--------------||
||-2-5-5-2-5----||
||-0-3-3-0-3----||
||--------------||



Riff A(2:18) (x02220@1)                                             5x
||-----------------------------------------------------------||
||*---------------------------------------------------------*||
||-----------------------------------------------------------||
||-----------------------------------------------------------||
||*-9--8--7--5--2--5----7--5----9--8--7--5--2--5----8--7----*||
||--7--6--5--3--0--3----5--3----7--6--5--3--0--3----6--5-----||



Riff B (3:22)
||-------------------------------------------------------------------------------------------||
||*-----------------------------------------------------------------------------------------*||
||-------------------------------------------------------------------------------------------||
||-------------------------------------------------------------------------------------------||
||*-2-2-2-5--2--8-7-5-7--5--2-2-2-5--2--8-7----2-2-2-5--2--8-7-5-7--5--2-2-2-5--2--8-7-5-7--*||
||--0-0-0-3--0--6-5-3-5--3--0-0-0-3--0--6-5----0-0-0-3--0--6-5-3-5--3--0-0-0-3--0--6-5-3-5---||



Fill A (3:44)
||-----------||
||-----------||
||------2----||
||-5----2----||
||-5----0----||
||-3---------||



Riff C(3:47) (x32010@1)          14x
||-------------------------||
||*-----------------------*||
||-------------------------||
||--2-5-5-2-5-5-2-55555-5--||
||*-0-3-3-0-3-3-0-33333-3-*||
||-------------------------||



Fill 2b (4:51)
||--------------------||
||--------------------||
||--------------------||
||-2-5-5--2--5~-------||
||-0-3-3--0--3~-------||
||--------------------||



Riff D(4:57) (xx0232@1)            17x
||---------------------------||
||*-------------------------*||
||---------------------------|| Left guitar only during the first time.
||---------------------------|| Gradually start to speed up at the 10th time.
||*-2--5--75/7-9--8--5-7-5-*||
||--0--3--53/5-7--6--3-5-3--||



Fill 3a (5:38)
||--------------------||
||--------------------||
||--------------------|| Let feedback ring.
||-2~-----------------||
||-2~-----------------||
||-0~-----------------||



Fill 3b (5:54)                     8x
||-----------------------------------||
||*---------------------------------*||
||-----------------------------------||
||-----------------------------------||
||*-2-2-2-2-2-2-2-2-2-2-2-2-2-2-2-2-*||
||--0-0-0-0-0-0-0-0-0-0-0-0-0-0-0-0--||


                                         _____________________ ______________________
Outro (6:18)                            |1                    |2                     |
||--------------------------------------|---------------------|----------------------||
||*-------------------------------------|--------------------*|----------------------||
||--------------------------------------|---------------------|----------------------||
||--------------------------------------|---------------------|----------------------||
||*-2--5--7-5--8---7--5-7--8---7--5-7-5-|-2---2-2-2-2-2-2-2--*|-2~-------------------||
||--0--3--5-3--6---5--3-5--6---5--3-5-3-|-0---0-0-0-0-0-0-0---|-0~-------------------||

Show more