Since I know noone else will actually tab it out,I thought I'd be the first to.I must 
also say I know some of you would say (and already have) "that isn't in Drop D."
For a seven string guitar,I know this.
This song is intended to be on a seven string guitar.
But the solo itself for a six string guitar would be tuned to Drop D.
There is only one video tutorial and I learned it by ear and some by watching.Here you go.Enjoy!

p=pull off  h=hammer on  ft=finger tap (opposite hand)  v=vibrato

*You do not absolutely HAVE TO do the right hand finger tap and instead could use your 
pinky,but the finger tapping just looks more flashy.


e/17p13--13----------------------13-21p17--17------17-21p17----------------|
B/-----15--15--15--------------15--------18--18--18--------18--------------|
G/-----------14--14--14------14----------------19------------19-14---------|
D/-----------------15--15--15-------------------------------------15-------|
A/-----------------------17-----------------------------------------17-12--|
D/-------------------------------------------------------------------------|

e/-----------13-18p13------13-17-13-20-13-18-13----------------------------|
B/---------14--------14--14--------------------14--13-----18---------------|
G/-------15------------15------------------------15--14-14--15-18----------|
D/-----15--------------------------------------------------------15-20-----|
A/13-16---------------------------------------------------------------15-16|
D/-------------------------------------------------------------------------|

e/---------------------16-20-16-21-16--------------16h20h21t;p20p16--------|
B/---------------18--18--------------18----------18----------------18------|
G/---------17--17--17------------------17------17--------------------17----|
D/-------18--18--------------------------18--18------------------------18--|
A/-----20----------------------------------20----------------------------20|
D/17-13--------------------------------------------------------------------|

e/--16-18-15-16---------------9-12-13-15-13-12-----------------------------|
B/18-----------18-14/9-9-11-13----------------14-13-11---------------------|
G/----------------------------------------------------13-12-10-------------|
D/------------------------------------------------------------14-11-10-----|
A/-------------------------------------------------------------------------|
D/-------------------------------------------------------------------------|

e/----------------------12-13-15--------13-15-16--------15-16-18-20-18-16--|
B/--------------11-13-14--------13-14-17--------14-17-18-------------------|
G/-------9-10-12-----------------------------------------------------------|
D/8-10-11------------------------------------------------------------------|
A/-------------------------------------------------------------------------|
D/-------------------------------------------------------------------------|

e/15-16-18-17v/2-------|
B/---------------------|
G/---------------------|
D/---------------------|
A/---------------------|
D/---------------------|
Show more