• Song:

    1985

  • Artist:

    Bowling for Soup

  • Album:

    Live And Very Attractiv...

Intro
G|---------------------------------------------------| 
D|---------------------------------------------------| 
A|-22222222------------------------------------------|
E|----------00000000-44444444-22222222---------------|

G|---------------------------------------------------| 
D|---------------------------------------------------| 
A|-22222222------------------------------------------|
E|----------00000000-44444444-22-22-22-22------------|

Verse
G|---------------------------------------------------| 
D|---------------------------------------------------| 
A|-22----------------------22------------------------|
E|-------00----44----22----------00----44----22-5---|

G|---------------------------------------------------| 
D|---------------------------------------------------| 
A|-22222222------------------------------------------|
E|----------00000000-44444444-22222222---------------|

G|---------------------------------------------------| 
D|---------------------------------------------------| 
A|-22222222------------------------------------------|
E|----------00000000-44444444-22-22-22---------------|

Chorus
G|---------------------------------------------------| 
D|---------------------------------------------------| 
A|-22222222------------------------------------------|
E|----------00000000-44444444-5555555----------------|

G|---------------------------------------------------| 
D|---------------------------------------------------| 
A|-22222222------------------------------------------|
E|----------00000000-44444444-55-55-55-55------------|

all above again!!!

G|---------------------------------------------------| 
D|---------------------------------------------------| 
A|-22222222------------------------------x3----------|
E|----------00000000-44444444-22222222---------------|

G|---------------------------------------------------| 
D|---------------------------------------------------| 
A|-22222222------------------------------------------|
E|----------00000000-44444444-22-22-22---------------|


G|---------------------------------------------------| 
D|---------------------------------------------------| 
A|-22222222--------------------------------x3--------|
E|----------00000000-44444444-5555555----------------|

G|---------------------------------------------------| 
D|---------------------------------------------------| 
A|-22222222------------------------------------------|
E|----------00000000-44444444-55-55-55---------------|


and thts it any problems, email me at xx-lil-retard-xx@hotmail.co.uk
Show more