• Song:

    Almost

  • Artist:

    Bowling for Soup

  • Album:

    Live And Very Attractiv...

*_*_*_*_*_*_*_*_*_*_*_*_*_*_*_*_*_*_*_*_*_*_*_*_*_*_*_*_*_*_*_*_*_*_*_*_*_*_
artist/band: bowling for soup
song:almost
tunning:EADGBe/c tunning
tabbed by:blinkrocker182/trevor if u like it or think its wrong or right rate it or u
can send me an email at ivbeenblinked182@netscape.net or my screen name is
guitarplayr92489
*_*_*_*_*_*_*_*_*_*_*_*_*_*_*_*_*_*_*_*_*_*_*_*_*_*_*_*_*_*_*_*_*_*_*_*_*_*_

Intro:x3

G:|-------------------------------------|
D:|-------------------------------------|
A:|2-2-2-2------------------------------|
E:|-------2-2-2-2-4-4-4-4-0-0-0-0-------|

Verse:x3
G:|-------------------------------------|
D:|-------------------------------------|
A:|2-2-2-2------------------------------|
E:|-------2-2-2-2-4-4-4-4-0-0-0-0-------|

Chorus:x2
G:|-------------------------------------|
D:|-------------------------------------|
A:|2-2-2-2------------------------------|
E:|-------2-2-2-2-0-0-0-0-0-0-0-0-------|

intro to next verse:x1
G:|-------------------------------------|
D:|-------------------------------------|
A:|2-2-2-2------------------------------|
E:|-------2-2-2-2-4-4-4-4-0-0-0-0-------|

Verse:x3
G:|-------------------------------------|
D:|-------------------------------------|
A:|2-2-2-2------------------------------|
E:|-------2-2-2-2-4-4-4-4-0-0-0-0-------|

Chorus:x2
G:|-------------------------------------|
D:|-------------------------------------|
A:|2-2-2-2------------------------------|
E:|-------2-2-2-2-0-0-0-0-0-0-0-0-------|

intro to bridge:x2
G:|-------------------------------------|
D:|-------------------------------------|
A:|2-2-2-2------------------------------|
E:|-------2-2-2-2-4-4-4-4-0-0-0-0-------|

bridge:x1
G:|--------------------------------------------|
D:|--------------------------------------------|
A:|--------------------------------------------|
E:|2-2-2-2-2-2-2-2-2-2-2-2-0-0-0-0-0-0-0-0-0-0-|

G:|-------------------------------------------------|
D:|-------------------------------------------------|
A:|-------------------------------------------------|
E:|-7-7-7-7-7-7-7-7-7-7-7-7-2-2-2-2-2-2-2-2-2-2-2-2-|

G:|--------------------------------------------|
D:|--------------------------------------------|
A:|--------------------------------------------|
E:|0-0-0-0-0-0-0-0-0-0-7-7-7-7-7-7-7-7-7-7-7-7-|

G:|-----------------------------------------------|
D:|-----------------------------------------------|
A:|2-2-2-2-2-2-2-2--------------------------------|
E:|---------------2-2-2-2-2-2-2-2-4-4-4-4-4-4-4-4-|

G:|----------------|
D:|----------------|
A:|----------------|
E:|0-0-0-0-0-0-0-0-|

Verse:x2
G:|-------------------------------------|
D:|-------------------------------------|
A:|2-2-2-2------------------------------|
E:|-------2-2-2-2-4-4-4-4-0-0-0-0-------|

Chorus:x6
G:|-------------------------------------|
D:|-------------------------------------|
A:|2-2-2-2------------------------------|
E:|-------2-2-2-2-0-0-0-0-0-0-0-0-------|

before end:x2
G:|-------------------------------------|
D:|-------------------------------------|
A:|2-2-2-2------------------------------|
E:|-------2-2-2-2-4-4-4-4-4-4-0-0-0-0---|

end on:
G:|----------------|
D:|----------------|
A:|2-2-2-2-2-2-2-2-|
E:|----------------|

If your new at bass or experienced this is a fun song to play and easy so if u like it
raqte it and email me or im me bye
Show more