• Song:

    Heres Your Freakin Song

  • Artist:

    Bowling for Soup

BOWLING FOUR SOUP - HERE'S YOUR FREAKIN' SONG (Bass Tab - Standard Tuning)


Intro:

G|---------------------------------------------------------------------------|
D|---------------------------------------------------------------------------| x1
A|---------------------------------------------------------------------------|
E|----0-0-0-0-0-0-0-0-0-0-0-0-0-0-0-0----------------------------------------|


Riff: 

G|---------------------------------------------------------------------------|
D|---------------------------------------------------------------------------| x2
A|----------------------------------------------4---2-----------6-6-7--------|
E|----0---------4---5-----------4---2----------------------------------------|


Verse:

G|---------------------------------------------------------------------------|
D|---------------------------------------------------------------------------|
A|--------------------------------------------------2-2-2-2-2-2-6-6-7--------| x2
E|----0-0-0-0-0-0-0-5-5-5-5-5-5-4-4-2-2-2-2-2-2-2-2--------------------------|



Pre-Chorus:

G|---------------------------------------------------------------------------|
D|---------------------------------------------------------------------------|
A|----4---------------4-------5-5-5-5-5-5-5-5-5-5-5-5-5-5-5-5----------------| x1
E|------------2--------------------------------------------------------------|


Chorus:

G|---------------------------------------------------------------------------|     
D|---------------------------------------------------------------------------|
A|----------------------------------------------4---2-----------6-6-7--------|
E|----0---------4---5-----------4---2----------------------------------------|


G|---------------------------------------------------------------------------|
D|---------------------------------------------------------------------------|
A|----4-4-4-4-4-4-4-4-6-6-6-6-6-6-6-6-7-7-7-7-7-7-7-7------------------------|
E|----------------------------------------------------5-5-5-5-5-4-4-4--------|


G|---------------------------------------------------------------------------|
D|---------------------------------------------------------------------------| x1
A|--------------------2---2--------------------------------------------------|
E|----2-2-----2-2------------------------------------------------------------|

Riff: 

G|---------------------------------------------------------------------------|
D|---------------------------------------------------------------------------| x1
A|----------------------------------------------4---2-----------6-6-7--------|
E|----0---------4---5-----------4---2----------------------------------------|

Verse:

G|---------------------------------------------------------------------------|
D|---------------------------------------------------------------------------|
A|--------------------------------------------------2-2-2-2-2-2-6-6-7--------| x2
E|----0-0-0-0-0-0-0-5-5-5-5-5-5-4-4-2-2-2-2-2-2-2-2--------------------------|


Pre-Chorus:

G|---------------------------------------------------------------------------|
D|---------------------------------------------------------------------------|
A|----4---------------4-------5-5-5-5-5-5-5-5-5-5-5-5-5-5-5-5----------------| x1
E|------------2--------------------------------------------------------------|

Chorus:

G|---------------------------------------------------------------------------|     
D|---------------------------------------------------------------------------|
A|----------------------------------------------4---2-----------6-6-7--------|
E|----0---------4---5-----------4---2----------------------------------------|


G|---------------------------------------------------------------------------|
D|---------------------------------------------------------------------------|
A|----4-4-4-4-4-4-4-4-6-6-6-6-6-6-6-6-7-7-7-7-7-7-7-7------------------------|
E|----------------------------------------------------5-5-5-5-5-4-4-4--------|


G|---------------------------------------------------------------------------|
D|---------------------------------------------------------------------------| x1
A|--------------------2---2--------------------------------------------------|
E|----2-2-----2-2------------------------------------------------------------|

Intro:

G|---------------------------------------------------------------------------|
D|---------------------------------------------------------------------------| x1
A|---------------------------------------------------------------------------|
E|----0-0-0-0-0-0-0-0-0-0-0-0-0-0-0-0----------------------------------------|

Bridge:


G|---------------------------------------------------------------------------|
D|---------------------------------------------------------------------------|
A|----0---0---0---0-------------------2---2---2---2---4---4---2---2----------| 
E|--------------------0---0---0---0------------------------------------------|


G|---------------------------------------------------------------------------|
D|---------------------------------------------------------------------------|
A|----0---0---0---0----------------------------------------------------------|
E|--------------------0---0---0---0---2---2---2---2--------------------------|


G|---------------------------------------------------------------------------|
D|---------------------------------------------------------------------------|
A|----2-2-2-2-2-2-2-2-2-2-2-2-2-2-2-2----------------------------------------|
E|---------------------------------------------------------------------------|

Riff: 

G|---------------------------------------------------------------------------|
D|---------------------------------------------------------------------------| x2
A|----------------------------------------------4---2-----------6-6-7--------|
E|----0---------4---5-----------4---2----------------------------------------|

Final Chorus:

G|---------------------------------------------------------------------------|     
D|---------------------------------------------------------------------------|
A|----------------------------------------------4-4-2-2-2-2-2-2-6-6-7--------|
E|----0-0-0-0-0-4-4-5-5-5-5-5-5-4-4-2-2-2-2-2-2------------------------------|


G|---------------------------------------------------------------------------|
D|---------------------------------------------------------------------------|
A|----4-4-4-4-4-4-4-4-6-6-6-6-6-6-6-6-7-7-7-7-7-7-7-7------------------------|
E|----------------------------------------------------5-5-5-5-5-4-4-4--------|


G|---------------------------------------------------------------------------|
D|---------------------------------------------------------------------------|
A|--------------------2---2--------------------------------------------------| x1
E|----2-2-----2-2------------------------------------------------------------|

Riff 

G|---------------------------------------------------------------------------|
D|---------------------------------------------------------------------------| x4
A|----------------------------------------------4---2-----------6-6-7--------|
E|----0---------4---5-----------4---2----------------------------------------|
Show more