• Song:

    The Bitch Song

  • Artist:

    Bowling for Soup

  • Album:

    Live And Very Attractiv...

sponsored links
Guitar intro on bass can be played like this if you like

A|--10-10-10-12-12-12-10-10--9-9-9-10-10-10-12-12

Intro
G|-----------------------------|
D|-----------------------------|
A|-----------5------3~---------|
E|--3--------------------------|

G|----------------------------------------|
D|----------------------------------------|
A|------------5-(x8)--3-(x16)-------------|
E|-3-(x8)---------------------------------|

Verse
G|-------------------------------------------|
D|-------------------------------------------|
A|------5---3~----------55-------3~----------|
E|--3--------------33------------------------|

Chorus
G|----------------------------------------|
D|----------------------------------------|
A|------------5-(x8)--3-(x16)-------------|
E|-3-(x8)---------------------------------| X4

Verse 2

G|-----------------------------------------|
D|-----------------------------------------|
A|------------5-(x8)--3-(x16)--------------|
E|-3-(x8)----------------------------------|  X4

Repeat chorus four times

Bridge part I
G|-------------------------------------------------------------|
D|-------------------------------------------------------------|
A|-----5--3--5-------------------------------------------------|
E|-3~-----------3~---------------------------------------------|
Holding all the notes, optional to pull off and hammer on

Part II
G|-----------------------------------------|
D|-----------------------------------------|
A|------------5-(x8)--3-(x16)--------------|
E|-3-(x8)----------------------------------|  X6

Part III
G|-----------------------------------------------|
D|-----------------------------------------------|
A|--------5(x10)-3~------------------------------|
E|--33-------------------------------------------|

Chorus X4

End
G|------------------------------------------------|
D|------------------------------------------------|
A|------5~--3~------------------------------------|
E|-3~--------------------------------3~-----------|
Show more
sponsored links
sponsored links