• Song:

    How Far Weve Come

  • Artist:

    Boyce Avenue

Tabs for standard tuning

------------------------------------------|
----------1----1h3-------3h1--------------|
-------0----0------0----------------------|
------------------------------------------|
----3-----------------3-------------------|
------------------------------------------|

------------------------------------------|
----------1----1h3-------3h1--------------|
-------0----0------0----------------------|
------------------------------------------|
------------------------------------------|
----3------------------3------------------|

------------------------------------------|
----------1----1h3-------3h1--------------|
-------0----0------0----------------------|
------------------------------------------|
----0-----------------0-------------------|
------------------------------------------|

--------------1-----0---------------------|
-------1----------------------1-----------|
----0------0-----0------0-----------------|
------------------------------------------|
------------------------------------------|
-1-------------------------1--------------|
Show more