• Song:

    How Far Weve Come

  • Artist:

    Boyce Avenue

Matchbox Twenty arranged by: Alejandro Manzano of Boyce Avenue

www.myspace.com/boyceavenue

video of Alejandro playing/singing it:
http://www.youtube.com/watch?v=QmzN37j4z0I

Tuning: C  G  C  G  C  C

x = mute
/ = slide

Intro/Verse 1:
---------------------------------------------------|
-------0---0h2-----2p0--------0----0h2------2p0----|
----0----0------0-----------0---0------0-----------|
-----------------------------------------2---------|
--------------------------0------------------------|
-0----------------0--------------------------------|

---------------------------------------------------|
-------0---0h2------2p0-------0--5--4-----0--------|
----0----0------0-----------0---------0------------|
---------------------------------------------------|
-2----------------2--------------------------------|
---------------------------5------------5----------|

Chorus 1:
--0---0---0---0---0---0---0---0----|
--0---0---0---2---0---0---0---2----|
--0---0---0---0---0---0---0---0----|
--4---0---0---2---4---0---0---2----|
--2---5---0---0---2---5---0---0----|
--0---5---0-----------5---0--------|

Turnaround
--------------------------------------------<12>-- |
-------0---0h2-----2p0--------0----0h2------<12>-- |
----0----0------0-----------0---0------0----<12>-- |
---------------------------------------------------|
---------------------------------------------------|
-0----------------0-------0--------------0---------|


Verse 2: (strum more strings)
--------------------------------------------------|
-------0---0h2-----2p0--------0----0h2------2p0---|
----0----0------0-----------0---0------0----------|
-----------------------------------------2--------|
--------------------------0-----------------------|
-0----------------0-------------------------------|

--------------------------------------------------|
-------0---0h2------2p0-------0--5--4-----0-------|
----0----0------0-----------0---------0-----------|
--------------------------------------------------|
-2----------------2-------------------------------|
---------------------------5------------5---------|

--------------------------------------------------|
-------0---0h2-----2p0--------0----0h2------2p0---|
----0----0------0-----------0---0------0----------|
-----------------------------------------2--------|
--------------------------0-----------------------|
-0----------------0-------------------------------|

--------------------------------------------------|
-------0---0h2------2p0---------------------------|
----0----0------0---------------------------------|
--------------------------------------------------|
-2----------------2--------5----------------------|
---------------------------5----------------------|

Chorus 2: 
--0---0---0---0---0---0---0---0----|
--0---0---4---2---0---0---4---2----|
--0---0---0---0---0---0---0---0----|
--4---0---0---0---4---0---0---0----|
--2---5---5---4---2---5---5---4----|
--0---5---0-----------5---0--------|

--0---0---0---0---0~-------0~---<12> ----0---0--------|
--0---0---4---2---0~-------0~---<12> ----4---2--------|
--0---0---0---0---0~-------0~---<12> ----0---0--------|
--4---0---0---0---4~-------0~------------0---0--------|
--2---5---5---4---2~-------5~------------5---4--------|
--0---5---0----------------5~------------0---0--------|

Outro:
Intro/Verse 1:
-----------------------------------------------------|
-------0---0h2-----2p0--------0----0h2------2p0------|
----0----0------0-----------0---0------0-------------|
-----------------------------------------2-----------|
--------------------------0--------------------------|
-0----------------0----------------------------------|

---------------------------0--|
-------0---0h2------2p0----0--|
----0----0------0----------0--|
---------------------------0--|
-2----------------2--------5--|
---------------------------5--|
Show more