• Song:

    Diary Of Jane

  • Artist:

    Breaking Benjamin

  • Album:

    Phobia

Tuning: A# F A# D# G C

INTRO

Lead
|-------------------------------|---------------------------------|
|-------------------------------|---------------------------------|
|----14----14----14----14----15-|-----14----14----17----15----14--|   
|-12----12----12----12----12----|--12----12----12----12----12-----|
|-------------------------------|---------------------------------|
|-------------------------------|---------------------------------|
Rhythm
|-------------------------------|---------------------------------|
|-------------------------------|---------------------------------|
|-------------------------------|---------------------------------|   
|-------------------------------|---------------------------------|
|-------------------------------|---------------------------------|
|-------------------------------|---------------------------------|

Lead
|-------------------------------|---------------------------------|
|-------------------------------|---------------------------------|
|----14----14----14----14----15-|-----14----14----17----15----14--|   
|-12----12----12----12----12----|--12----12----12----12----12-----|
|-------------------------------|---------------------------------|
|-------------------------------|---------------------------------|
Rhythm  w/ wah
|-------------------------------|---------------------------------|
|-------------------------------|---------------------------------|
|-------------------------------|---------------------------------|   
|-------------------------------|---------------------------------|
|-5-----------------------------|-(5)-----------------------------|
|-------------------------------|---------------------------------|

Lead
|-------------------------------|---------------------------------|
|-------------------------------|---------------------------------|
|----14----14----14----14----15-|-----14----14----17----15----14--|   
|-12----12----12----12----12----|--12----12----12----12----12-----|
|-------------------------------|---------------------------------|
|-------------------------------|---------------------------------|
Rhythm  w/ wah
|-------------------------------|---------------------------------|
|-------------------------------|---------------------------------|
|-------------------------------|---------------------------------|   
|-------------------------------|---------------------------------|
|-0-----------------------------|-(0)-----------------------------|
|-------------------------------|---------------------------------|

Lead
|-------------------------------|---------------------------------|
|-------------------------------|---------------------------------|
|----14----14----17----15----14-|-----14----14----17----15----14--| 
|-12----12----12----12----12----|--12----12----12----12----12-----|
|-------------------------------|---------------------------------|
|-------------------------------|---------------------------------|
Rhythm  w/ wah
|-------------------------------|---------------------------------|
|-------------------------------|---------------------------------|
|-------------------------------|---------------------------------|   
|-------------------------------|---------------------------------|
|5-5-5-5-5-5-5-5-5-5-5-5-5-5-5-5|5-5-5-5-5-5-5-5-5-5-5-5-5-5-5-5-5|
|-------------------------------|---------------------------------|

Lead
|-------------------------------|---------------------------------|
|-------------------------------|---------------------------------|
|----14----14----17----15----14-|-----14----14-----14~~~~~~~------| 
|-12----12----12----12----12----|--12----12----12-----------------|
|-------------------------------|---------------------------------|
|-------------------------------|---------------------------------|
Rhythm  w/ wah
|-------------------------------|---------------------------------|
|-------------------------------|---------------------------------|
|-------------------------------|---------------------------------|   
|-------------------------------|------------------10---10---10---|
|5-5-5-5-5-5-5-5-5-5-5-5-5-5-5-5|5-5-5-5-5-5-5-5----8----8----8---|
|-------------------------------|-------------------8----8----8---|

PRE VERSE 

Lead
|-------------------------------|------------------------------|
|-------------------------------|------------------------------|
|----14----14----17----15----14-|-----14----14-----9~~~~~~~----| 
|-12----12----12----12----12----|--12----12----12--------------|
|-------------------------------|------------------------------|
|-------------------------------|------------------------------|
Rhythm  w/ wah
|-------------------------------|-------------------------------|
|-------------------------------|-------------------------------|
|-------------------------------|-------------------------------|   
|----------------5--------------|----------------5--------------|
|0-0-5p0-0-7p5-0-3-0-0-8p0-0-3|0-0-5p0-0-7p5-0-3-0-0-8p0-0-3|
|0-0-5p0-0-7p5-0---0-0-8p0-0-3|0-0-5p0-0-7p5-0---0-0-8p0-0-3|

Lead
|-------------------------------|------------------------------|
|-------------------------------|------------------------------|
|----14----14----17----15----14-|-----14----14-----9~~~~~~~----| 
|-12----12----12----12----12----|--12----12----12--------------|
|-------------------------------|------------------------------|
|-------------------------------|------------------------------|
Rhythm  w/ wah
|-------------------------------|-------------------------------|
|-------------------------------|-------------------------------|
|-------------------------------|-----------------5----5----5---|   
|----------------5--------------|-----------------3----3----3---|
|0-0-5p0-0-7p5-0-3-0-0-8p0-0-3|0-0-5p0-0-7p5-0--1----1----1---|
|0-0-5p0-0-7p5-0---0-0-8p0-0-3|0-0-5p0-0-7p5-0----------------|

VERSE

Lead
|-------------------------|-----------------------------|-------------|
|-------------------------|-----------------------------|-------------|
|---------------7-------7-|-------------------7-------7-|-7-------10--| x2
|----------------7-------7|--------------------7-------7|-5--------8--|
|--0-0--0--0-0-----0-0----|0-0--0-0-0-0--0-0-----0-0----|-5---0-0--8--|
|--0-0--0--0-0-----0-0----|0-0--0-0-0-0--0-0-----0-0----|-5---0-0--8--|
PM____________|NH_|PM_|NH_|PM_______________|NH_|PM_|NH_|    PM__|

CHORUS

Lead
|-------------------------------------------------|
|-------------------------------------------------|
|-14-14-14-12-12-12-14-14-14-12-12-12-14-14-12-12-|   
|-------------------------------------------------|
|-------------------------------------------------|
|-------------------------------------------------|

|-------------------------------------------------|
|-------------------------------------------------|
|-14-14-14-12-12-12-15-15-15-15-15-15-15-15-15-15-|   
|-------------------------------------------------|
|-------------------------------------------------|
|-------------------------------------------------|
|-------------------------------------------------|
|-------------------------------------------------|
|-17-17-17-17-17-17-17-17-17-17-17-17-17-17-17-17-|   
|-------------------------------------------------|
|-------------------------------------------------|
|-------------------------------------------------|

|-------------------------------------------------|
|-------------------------------------------------|
|-15-15-15-15-15-15-15-15-15-15-15-15-15-15-15-15-|   
|-------------------------------------------------|
|-------------------------------------------------|
|-------------------------------------------------|

|--------------------|--------------------|
|--------------------|--------------------|
|-14---15---17---15--|-14---15---17---15--|   
|--------------------|--------------------|
|--------------------|--------------------|
|--------------------|--------------------|

Rhythm
|-------------------------------|-------------------------------|
|-------------------------------|-------------------------------|
|-2---2--2--2---2--2--2---2--2--|10--10-10-10--10-10-10--10-10--|   
|-0---0--0--0---0--0--0---0--0--|-8---8--8--8---8--8--8---8--8--|
|-0---0--0--0---0--0--0---0--0--|-8---8--8--8---8--8--8---8--8--|
|-0---0--0--0---0--0--0---0--0--|-8---8--8--8---8--8--8---8--8--|

|-------------------------------|-------------------------------|
|-------------------------------|-------------------------------|
|-5---5--5--5---5--5--5---5--5--|-12--12-12-12--12-12-12--12-12-|   
|-3---3--3--3---3--3--3---3--3--|-10--10-10-10--10-10-10--10-10-|
|-3---3--3--3---3--3--3---3--3--|-10--10-10-10--10-10-10--10-10-|
|-3---3--3--3---3--3--3---3--3--|-10--10-10-10--10-10-10--10-10-|
|-------------------------------|-------------------------------|
|-------------------------------|-------------------------------|
|10--10-10-10--10-10-10--10-10--|-12--12-12-12--12-12-12--12-12-|   
|-8---8--8--8---8--8--8---8--8--|-10--10-10-10--10-10-10--10-10-|
|-8---8--8--8---8--8--8---8--8--|-10--10-10-10--10-10-10--10-10-|
|-8---8--8--8---8--8--8---8--8--|-10--10-10-10--10-10-10--10-10-|

PRE VERSE

Lead
|-------------------------------|------------------------------|
|-------------------------------|------------------------------|
|----14----14----17----15----14-|-----14----14-----9~~~~~~~----| 
|-12----12----12----12----12----|--12----12----12--------------|
|-------------------------------|------------------------------|
|-------------------------------|------------------------------|
Rhythm  w/ wah
|-------------------------------|-------------------------------|
|-------------------------------|-------------------------------|
|-------------------------------|-----------------5----5----5---|   
|----------------5--------------|-----------------3----3----3---|
|0-0-5p0-0-7p5-0-3-0-0-8p0-0-3|0-0-5p0-0-7p5-0--1----1----1---|
|0-0-5p0-0-7p5-0---0-0-8p0-0-3|0-0-5p0-0-7p5-0----------------|

VERSE 2

|-------------------------|-----------------------------|-------------|
|-------------------------|-----------------------------|-------------|
|---------------7-------7-|-------------------7-------7-|-7--------(b9)-|
|--0-0--0--0-0---7-0-0---7|0-0--0-0-0-0--0-0---7-0-0---7|-5---0-0--8--|
|--0-0--0--0-0-----0-0----|0-0--0-0-0-0--0-0-----0-0----|-5---0-0--8--|
|--0-0--0--0-0-----0-0----|0-0--0-0-0-0--0-0-----0-0----|-5---0-0--8--|
PM____________|NH_|PM_|NH_|PM_______________|NH_|PM_|NH_|    PM__|

|-------------------------|-----------------------------|-------------|
|-------------------------|-----------------------------|-------------|
|---------------7-------7-|-------------------7-------7-|-7------1010-|
|--0-0--0--0-0---7-0-0---7|0-0--0-0-0-0--0-0---7-0-0---7|-5-------8-8-|
|--0-0--0--0-0-----0-0----|0-0--0-0-0-0--0-0-----0-0----|-5-------8-8-|
|--0-0--0--0-0-----0-0----|0-0--0-0-0-0--0-0-----0-0----|-5-------8-8-|
PM____________|NH_|PM_|NH_|PM_______________|NH_|PM_|NH_|    

CHORUS 2

Lead
|-------------------------------------------------|
|-------------------------------------------------|
|-14-14-14-12-12-12-14-14-14-12-12-12-14-14-12-12-|   
|-------------------------------------------------|
|-------------------------------------------------|
|-------------------------------------------------|

|-------------------------------------------------|
|-------------------------------------------------|
|-14-14-14-12-12-12-15-15-15-15-15-15-15-15-15-15-|   
|-------------------------------------------------|
|-------------------------------------------------|
|-------------------------------------------------|
|-------------------------------------------------|
|-------------------------------------------------|
|-17-17-17-17-17-17-17-17-17-17-17-17-17-17-17-17-|   
|-------------------------------------------------|
|-------------------------------------------------|
|-------------------------------------------------|

|-------------------------------------------------|
|-------------------------------------------------|
|-15-15-15-15-15-15-15-15-15-15-15-15-15-15-15-15-|   
|-------------------------------------------------|
|-------------------------------------------------|
|-------------------------------------------------|

|-------------------------------------------------|
|-------------------------------------------------|
|-14-14-14-12-12-12-14-14-14-12-12-12-14-14-12-12-|   
|-------------------------------------------------|
|-------------------------------------------------|
|-------------------------------------------------|

|-------------------------------------------------|
|-------------------------------------------------|
|-14-14-14-12-12-12-15-15-15-15-15-15-15-15-15-15-|   
|-------------------------------------------------|
|-------------------------------------------------|
|-------------------------------------------------|

|-------------------------------------------------|
|-------------------------------------------------|
|-17-17-17-17-17-17-17-17-17-17-17-17-17-17-17-17-|   
|-------------------------------------------------|
|-------------------------------------------------|
|-------------------------------------------------|

|-------------------------------------------------|
|-------------------------------------------------|
|-15-15-15-15-15-15-15-15-15-15-15-15-15-15-15-15-|   
|-------------------------------------------------|
|-------------------------------------------------|
|-------------------------------------------------|

|--------------------|--------------------|
|--------------------|--------------------|
|-14---15---17---15--|-14---15---17---15--|   
|--------------------|--------------------|
|--------------------|--------------------|
|--------------------|--------------------|

Rhythm
|-------------------------------|-------------------------------|
|-------------------------------|-------------------------------|
|-2---2--2--2---2--2--2---2--2--|10--10-10-10--10-10-10--10-10--|   
|-0---0--0--0---0--0--0---0--0--|-8---8--8--8---8--8--8---8--8--|
|-0---0--0--0---0--0--0---0--0--|-8---8--8--8---8--8--8---8--8--|
|-0---0--0--0---0--0--0---0--0--|-8---8--8--8---8--8--8---8--8--|

|-------------------------------|-------------------------------|
|-------------------------------|-------------------------------|
|-5---5--5--5---5--5--5---5--5--|-12--12-12-12--12-12-12--12-12-|   
|-3---3--3--3---3--3--3---3--3--|-10--10-10-10--10-10-10--10-10-|
|-3---3--3--3---3--3--3---3--3--|-10--10-10-10--10-10-10--10-10-|
|-3---3--3--3---3--3--3---3--3--|-10--10-10-10--10-10-10--10-10-|

|-------------------------------|-------------------------------|
|-------------------------------|-------------------------------|
|-2---2--2--2---2--2--2---2--2--|10--10-10-10--10-10-10--10-10--|   
|-0---0--0--0---0--0--0---0--0--|-8---8--8--8---8--8--8---8--8--|
|-0---0--0--0---0--0--0---0--0--|-8---8--8--8---8--8--8---8--8--|
|-0---0--0--0---0--0--0---0--0--|-8---8--8--8---8--8--8---8--8--|

|-------------------------------|-------------------------------|
|-------------------------------|-------------------------------|
|-5---5--5--5---5--5--5---5--5--|-12--12-12-12--12-12-12--12-12-|   
|-3---3--3--3---3--3--3---3--3--|-10--10-10-10--10-10-10--10-10-|
|-3---3--3--3---3--3--3---3--3--|-10--10-10-10--10-10-10--10-10-|
|-3---3--3--3---3--3--3---3--3--|-10--10-10-10--10-10-10--10-10-|

|--------------------------|--------------------------|
|--------------------------|--------------------------|
|10101010--10101010--1010--|-12121212--12121212--1212-|   
|-8-8-8-8---8-8-8-8---8-8--|-10101010--10101010--1010-|
|-8-8-8-8---8-8-8-8---8-8--|-10101010--10101010--1010-|
|-8-8-8-8---8-8-8-8---8-8--|-10101010--10101010--1010-|
BRIDGE

Rhythm
|------------------------|------------------------|------------------------|
|------------------------|------------------------|------------------------|
|------------------------|------------------------|------------------------|
|------------------------|------------------------|------------------------|
|-0-0--0-000-000-0-0-5/7-|-0-0--0-000-000-0-0-5/7-|-0-0--0-000-000-0-0-5/7-|
|-0-0--0-000-000-0-0-5/7-|-0-0--0-000-000-0-0-5/7-|-0-0--0-000-000-0-0-5/7-|
PM__________________|    PM__________________|    PM__________________|

|----------------------|---------------------|------------------------|
|----------------------|---------------------|------------------------|
|----------------------|-5-5-5-5-5-7-7-7-7-7-|------------------------|
|----------------------|-3-3-3-3-3-5-5-5-5-5-|------------------------|
|-00-0-0-8-7-0-5-7-3-2-|-3-3-3-3-3-5-5-5-5-5-|-0-0--0-000-000-0-0-5/7-|
|-00-0-0-8-7-0-5-7-3-2-|-3-3-3-3-3-5-5-5-5-5-|-0-0--0-000-000-0-0-5/7-|
PM______|                                    PM__________________|

|------------------------|-------------------------|
|------------------------|-------------------------|
|------------------------|-5-5-5-5-5-7-7-----------|
|------------------------|-3-3-3-3-3-5-5-8-8-7-----|
|-0-0--0-000-000-0-0-5/7-|-3-3-3-3-3-5-5-8-8-7-3-|
|-0-0--0-000-000-0-0-5/7-|-3-3-3-3-3-5-5-8-8-7-3-|

Lead
|---------------|--------------------|--------------|--------------------|
|--15-17--------|--------------------|-15-17--------|----------13~-------|
|--------17-----|-----12-14-12-11----|-------17-----|----12-14-----------|   
|---------------|--15-------------12-|--------------|-15-----------------|
|---------------|--------------------|--------------|--------------------|
|---------------|--------------------|--------------|--------------------|

|---------------------|---------------|--------------------|------------|-----------|
|---------------------|--15-17--------|--------------------|--15-17-18~-|-15-17-----|
|--12~~~~~~14~~~~~~---|--------17-----|----12-14-12-11-----|------------|-------17--|
|---------------------|---------------|-15-------------12--|------------|-----------|
|---------------------|---------------|--------------------|------------|-----------|
|---------------------|---------------|--------------------|------------|-----------|

CHORUS 3

Lead
|-------------------------------------------------|
|-------------------------------------------------|
|-14-14-14-12-12-12-14-14-14-12-12-12-14-14-12-12-|   
|-------------------------------------------------|
|-------------------------------------------------|
|-------------------------------------------------|

|-------------------------------------------------|
|-------------------------------------------------|
|-14-14-14-12-12-12-15-15-15-15-15-15-15-15-15-15-|   
|-------------------------------------------------|
|-------------------------------------------------|
|-------------------------------------------------|

|-------------------------------------------------|
|-------------------------------------------------|
|-17-17-17-17-17-17-17-17-17-17-17-17-17-17-17-17-|   
|-------------------------------------------------|
|-------------------------------------------------|
|-------------------------------------------------|
|-------------------------------------------------|
|-------------------------------------------------|
|-15-15-15-15-15-15-15-15-15-15-15-15-15-15-15-15-|   
|-------------------------------------------------|
|-------------------------------------------------|
|-------------------------------------------------|

|-------------------------------------------------|
|-------------------------------------------------|
|-14-14-14-12-12-12-14-14-14-12-12-12-14-14-12-12-|   
|-------------------------------------------------|
|-------------------------------------------------|
|-------------------------------------------------|

|-------------------------------------------------|
|-------------------------------------------------|
|-14-14-14-12-12-12-15-15-15-15-15-15-15-15-15-15-|   
|-------------------------------------------------|
|-------------------------------------------------|
|-------------------------------------------------|

|-------------------------------------------------|
|-------------------------------------------------|
|-17-17-17-17-17-17-17-17-17-17-17-17-17-17-17-17-|   
|-------------------------------------------------|
|-------------------------------------------------|
|-------------------------------------------------|

|-------------------------------------------------|
|-------------------------------------------------|
|-15-15-15-15-15-15-15-15-15-15-15-15-15-15-15-15-|   
|-------------------------------------------------|
|-------------------------------------------------|
|-------------------------------------------------|

Rhythm

|-------------------------------|-------------------------------|
|-------------------------------|-------------------------------|
|-2---2--2--2---2--2--2---2--2--|10--10-10-10--10-10-10--10-10--|   
|-0---0--0--0---0--0--0---0--0--|-8---8--8--8---8--8--8---8--8--|
|-0---0--0--0---0--0--0---0--0--|-8---8--8--8---8--8--8---8--8--|
|-0---0--0--0---0--0--0---0--0--|-8---8--8--8---8--8--8---8--8--|

|-------------------------------|-------------------------------|
|-------------------------------|-------------------------------|
|-5---5--5--5---5--5--5---5--5--|-12--12-12-12--12-12-12--12-12-|   
|-3---3--3--3---3--3--3---3--3--|-10--10-10-10--10-10-10--10-10-|
|-3---3--3--3---3--3--3---3--3--|-10--10-10-10--10-10-10--10-10-|
|-3---3--3--3---3--3--3---3--3--|-10--10-10-10--10-10-10--10-10-|

|-------------------------------|-------------------------------|
|-------------------------------|-------------------------------|
|-2---2--2--2---2--2--2---2--2--|10--10-10-10--10-10-10--10-10--|   
|-0---0--0--0---0--0--0---0--0--|-8---8--8--8---8--8--8---8--8--|
|-0---0--0--0---0--0--0---0--0--|-8---8--8--8---8--8--8---8--8--|
|-0---0--0--0---0--0--0---0--0--|-8---8--8--8---8--8--8---8--8--|

|-------------------------------|-------------------------------|
|-------------------------------|-------------------------------|
|-5---5--5--5---5--5--5---5--5--|-12--12-12-12--12-12-12--12-12-|   
|-3---3--3--3---3--3--3---3--3--|-10--10-10-10--10-10-10--10-10-|
|-3---3--3--3---3--3--3---3--3--|-10--10-10-10--10-10-10--10-10-|
|-3---3--3--3---3--3--3---3--3--|-10--10-10-10--10-10-10--10-10-|

ENDING

Lead
|-------------------------------|------------------------------|
|-------------------------------|------------------------------|
|----14----14----17----15----14-|-----14----14-----9~~~~~~~----| 
|-12----12----12----12----12----|--12----12----12--------------|
|-------------------------------|------------------------------|
|-------------------------------|------------------------------|

Rhythm  w/ wah

|-------------------------------|-------------------------------|
|-------------------------------|-------------------------------|
|-------------------------------|-------------------------------|   
|----------------5--------------|----------------5--------------|
|0-0-5p0-0-7p5-0-3-0-0-8p0-0-3|0-0-5p0-0-7p5-0-3-0-0-8p0-0-3|
|0-0-5p0-0-7p5-0---0-0-8p0-0-3|0-0-5p0-0-7p5-0---0-0-8p0-0-3|

Lead

|-------------------------------|------------------------------|
|-------------------------------|------------------------------|
|----14----14----17----15----14-|-----14----14-----9~~~~~~~----| 
|-12----12----12----12----12----|--12----12----12--------------|
|-------------------------------|------------------------------|
|-------------------------------|------------------------------|

Rhythm  w/ wah

|-------------------------------|----------------------------------|
|-------------------------------|----------------------------------|
|-------------------------------|-----------------5----5----5------|   
|----------------5--------------|-----------------3----3----3----0-|
|0-0-5p0-0-7p5-0-3-0-0-8p0-0-3|0-0-5p0-0-7p5-0--1----1----1----0-|
|0-0-5p0-0-7p5-0---0-0-8p0-0-3|0-0-5p0-0-7p5-0-----------------0-|
Show more