• Song:

    Lights Out

  • Artist:

    Breaking Benjamin

  • Album:

    Shallow Bay: The Best O...

Drop Bb

Intro                                                            Play Twice
|--------------------------------------------------------------------------|
|--------------------------------------------------------------------------|
|--------------------------------------------------------------------------|
|--------------------------------------------------------------------------|
|-------------5----0h36------------5----5h63-------------------------------|
|0-1-0--0-1p0--40h4-----0-1-0--01p0-40h4-----------------------------------|

Verse (Dont know the rhythm part yet)                            Play Twice
|--------------------------------------------------------------------------|
|--------------------------------------------------------------------------|
|----14~-15-12-------------------------------------------------------------|
|12~-------------1--0-00-00-0-00-1-----------------------------------------|
|----------------1--0-00-00-0-00-1-----------------------------------------|
|----------------1--0-00-00-0-00-1-----------------------------------------|

Pre Chorus (Listen for strumming)                                Play Twice

"Now you wanna take me down..as if I even care..I am the monster in your..
|--------------------------------------------------------------------------|
|--------------------------------------------------------------------------|
|--------------------------------------------------------------------------|
|3333333333333333333777555555555555557777744444444444444440000000000222----|
|--------------------------------------------------------------------------|
|--------------------------------------------------------------------------|

      "And now your life.........is broken"                      Play Once
|--------------------------------------------------------------------------|
|--------------------------------------------------------------------------|
|--------------------------------------------------------------------------|
|33333333333333333333333555555555555555555---------------------------------|
|--------------------------------------------------------------------------|
|--------------------------------------------------------------------------|

Chorus
      "After the lights go out on you, after your worthless life is through
|--------------------------------------------------------------------------|
|--------------------------------------------------------------------------|
|--------------------------------------------------------------------------|
|777777777777777777777777777777555444444444444444447777777775555588877777--|
|--------------------------------------------------------------------------|
|--------------------------------------------------------------------------|

"I will remember how you scream, I cant..I cant afford to care"
|--------------------------------------------------------------------------|
|--------------------------------------------------------------------------|
|--------------------------------------------------------------------------|
|77777777777777777777555544444444 7-7-7-7--5-5-5-5-------------------------|
|--------------------------------------------------------------------------|
|--------------------------------------------------------------------------|
Show more