• Song:

    Black Blue

  • Artist:

    Bring Me The Horizon

-------------------------------------------------------------------------------
			     Black & Blue - Bring Me The Horizon
-------------------------------------------------------------------------------

Tabbed By : Sparky
e-mail: xyourxangelxofxdeathx@hotmail.com

Tuning: B F# B E


E |------------|------------|------------|-----------------|
B |------------|------------|------------|-----------------|
F#|------------|------------|------------|---GUITAR FILL---|
B |------------|--00-00--0~-|--00-00--0--|-----------------|

E |------------------------------|-------------------------|  |-------------|
B |------------------------------|-------------------------|  |-------------|
F#|-----6--6--3-5----------------|-----6--6--3-5-----------|x4|-GUITAR FILL-|
B |-0-0-----------0-0-0-0-0-0-0-0|-0-0-----------00----00--|  |-------------|

E |---------------------------------------|
B |---------------------------------------|
F#|---------------------------------------| x4
B |-00---00---00---00---88---88---55---55-|

E |-------------------------| |-----------------------------------|
B |-------------------------| |-----------------------------------|
F#|-------------------------| |-----------------------------------| x3
B |-0-----8~---8~---5~---7~-| |-0x16--88888888-5555-7777----------|

E |---------------|
B |---------------|
F#|---------------| x4
B |-000---000---0~|

E |---------------| 
B |---------------| 
F#|---------------| 
B |-000---000---0-| 

E |-----------------------------------------------------------------------|
B |-----------------------------------------------------------------------|
F#|----------------------------------3------------------------------------|
B |-0000-0000-0--000-000-0--00000000----000-000-0--0000-0000--000-000-0---|

E |---------------------------|
B |---------------------------|
F#|-------------------------3-| x2
B |-000--000--000~------000---|

E |--------------------------------------------------------------|
B |--------------------------------------------------------------|
F#|------------------------------------------5555-4444-8888-7777-| x2
B |-0-0-3-1-0-0---0-0-3-1-0-0---0-0-3-1-0-0----------------------|

E |---------------|    |-------------| |---------------|    |-------------|
B |---------------|    |-------------| |---------------|    |-------------|
F#|-----------1---| x3 |-GUITAR FILL-| |-----------1---| x3 |-GUITAR FILL-|
B |-0-0-3-1-0---0-|    |-------------| |-0-0-3-1-0---0-|    |-------------|

E |------------------------------------------ |
B |-------------------------------------------|
F#|-------------------------------------------|
B |-1-0~--0-0-1-3-1-0~-----1-0~--0-0-1-3-1-0~-|

E |---------------------------------------|-------------|
B |---------------------------------------|-------------|
F#|---------------------------------------|-GUITAR FILL-|
B |-1-0---0-0-1-3-1-0------1-0---0-0-1-3--|-------------|

E |------------------------------------------|------------------|
B |------------------------------------------|------------------|
F#|------------------------------------------|------------------|
B |-1-0---0-0-1-3-1-0------1-0---0-0-1-3-1-0-|------------------|

E |---------------------------------------|-------------|
B |---------------------------------------|-------------|
F#|---------------------------------------|-GUITAR FILL-|
B |-1-0---0-0-1-3-1-0------1-0---0-0-1-3--|-------------|

E |------------------------------------------|------------------|
B |------------------------------------------|------------------|
F#|------------------------------------------|------------------|
B |-1-0---0-0-1-3-1-0------1-0---0-0-1-3-1-0-|------------------|

E |---------------------------------------|    |--------------------|
B |---------------------------------------|    |--------------------|
F#|---------------------------------------| x3 |-55555555-7777-8888-|
B |-00---00---00---00---88---88---55---55-|    |--------------------|

E |-------------------------| |--------------------------|
B |-------------------------| |--------------------------|
F#|-------------------------| |--------------------------|
B |-0-----8~--------5~---7~-| |-0x16--88888888-5555-7777-|

E |-------------------------|   |------------|
B |-------------------------|   |------------|
F#|-------------------------|x2 |------------|
B |-0~----8~--------5~---7~-|   |-0~-8--5--7-|

E |---------------------|    |----------------------|
B |---------------------|    |----------------------|
F#|---------------------| x2 |----------------------| x2
B |-00000000-8888-55-77-|    |-00---00---8888-55-77-|

E |---------------------|
B |---------------------|
F#|---------------------| x2
B |-00000000-8888-55-77-|

E |----------------|
B |----------------|
F#|----------------| x11
B |-0----00-00-000-|

E |---------------------|
B |---------------------|
F#|---------------------|
B |-0-----------------0-|






| /  slide up
| \  slide down
| h  hammer-on
| p  pull-off
| ~  let ring
| +  harmonic
| x  Mute note
===============================================================================
Show more