• Song:

    Dont Go

  • Artist:

    Bring Me The Horizon

Artist - Bring Me The Horizon
Song - Don't Go
Album - There is a hell, there is a heaven 
Tabber - Nick Orvik
Profile - horizonaflame

so this is my 4th tab, tell me what you think

tuning - Drop C - CGCF from low to high

Guitar intro/verse 1 

No bass

Verse 2 x4

F|-------------------------|-------------------------|
C|-------------------------|-------------------------|
G|-------------------------|-------------------------|
C|-12-12-12-12-12-12-12-12-|-12-12-12-12-12-12-12-12-|

F|-----------------|-----------------|
C|-----------------|-----------------|
G|-----------------|-----------------|
C|-8-8-8-8-8-8-8-8-|-7-7-7-7-7-7-7-7-|

Chorus x2

F|-------------|----------|-----------|----------|
C|-------------|----------|-----------|----------|
G|-------------|----------|-----------|----------|
C|-12~---------|0~--------|8~---------|7~--------|

Verse 3 (this is played very sofly so listen for it!) x2

F|-----------------|-----------------|-----------------|
C|-0-0-0-0-0-0-0-0-|-2-2-2-2-2-2-2-2-|-3-3-3-3-3-3-3-3-|
G|-----------------|-----------------|-----------------|
C|-----------------|-----------------|-----------------|

F|-----------------|-----------------|------------------|
C|-5-5-5-5-5-5-7-7-|8~---------------|10~---------------|
G|-----------------|-----------------|------------------|
C|-----------------|-----------------|------------------|

Brigde pt. 1 (tell me that you love me . . . ) x2

F|-----------------|-----------------|
C|-----------------|-----------------|
G|-----------------|-----------------|
C|-12~-------------|-0~--------------|

Bridge pt. 2 (after the tell me that you love me) x2

F|-------------------------|-------------------------|
C|-------------------------|-------------------------|
G|-------------------------|-------------------------|
C|-12-12-12-12-12-12-10~---|-12-12-12-12-12-12-8~----|

Chorus x3

Ends on:

F|-------------------------|
C|-------------------------|
G|-------------------------|
C|-12-12-12-12-0~----------|

thats pretty much it, any questions? just email me at horizonaflame@yahoo.com.

Also please rate :)
Show more