• Song:

    It Never Ends

  • Artist:

    Bring Me The Horizon

  • Album:

    There Is A Hell, Believ...

Tabbed By: Lorenz Esparcia
Profile: Lolorenz11

It Never Ends
Bring Me The Horizon
There is a Hell, Believe me I’ve seen it. There is a Heaven, let’s keep it a secret.

Ok so I’ve noticed the first two were correct but were a few frets off, plus some of the
parts were wrong. How do I know they were wrong? Well I’ve watched at least a dozen
videos of Lee himself from BMTH perform this song so this is 99% correct… except for one 
part in the last minute.

Not a very hard song at all, just increase the bass in your equalizer (i'm sure most
equalizers have 'bass booster' as an option)

Any problems, just message me via facebook by searching unknown_132456@hotmail.com on facebook.


Intro (0:02-0:20)
F|-------------------|------------------|-----------------------|----------|
C|-------------------|------------------|-----------------------|----------|
G|-7777777777777777--|-7777777755555555-|-3333-33333-3333-33333-|-5x5x5x5x-|
C|-------------------|------------------|-----------------------|----------|

F|-------------------|------------------|-----------------------|----------|
C|-------------------|------------------|-----------------------|----------|
G|-7777777777777777--|-7777777-5x5x5x5x-|-3333-33333-3333-33333-|-5x5x5x5x-|
C|-------------------|------------------|-----------------------|----------|

(0:21-0:30)
F|--------------------------|-------------------------|
C|--------------------------|-------------------------|
G|--------------------------|-------------------------|
C|-12(x12)-10-12(x6)-10(x4)-|-8(x12)-7-8(x6)-7x7x7x7x-|

Breakdown (0:31-0:39) (There’s a pause between the quad opens and the next set of opens)
F|---------------------------|--------|
C|---------------------------|--------|
G|---------------------------|--------|
C|-0x-000x-0000x----0x-0x-0x-|-8(x12)-|

(0:40-0:57)
F|----------------------------------|----1st-time---|-2nd-time-|
C|----------(14-not-1&4)------------|---------------|-end-with-|
G|-8p7-----8p7-----7/14-1414--------|---------------|----------|
C|-----8x------8x-------------88-8x-|-8x8x-1010-10x-|--10(x12)-|

Orchestra part (0:58-1:15)
F|---------------|----------------|----------|-----------|
C|---------------|----------------|----------|-----------|
G|---------------|----------------|----------|-----------|
C|-12-12-1212-12-|-12-12-12-10-10-|-8-8-88-8-|-8-8-10-10-|X2



Pre-Chorus (1:16-1:29)
F|--------------|----------------------------------------------------------|
C|--------------|----------------------------------------------------------|
G|--------------|------7(x8)-------10(x8)----------------------------------|
C|-5(x8)--8(x8)-|-7h8---------7h8-----------8-8-8-8-8-8-8-8-101010101010x--|

Chorus (1:30-1:47)
F|----------------------------------|
C|----------------------------------|
G|-7(x10)-10(x5)--555-3(x10)—4h5----|
C|----------------------------------|X2



Post-Chorus (1:48-1:57)
F|--------------------------------------------|
C|--------------------------------------------|
G|--------------------------------------------|
C|-8-88-8---5-55-5---6-66-6---8-88-8----5-----|

Breakdown (1:58-1:59) (All Palm Muted except for anything on G and ~’s)
F|-------------------|
C|-------------------| Sidenote for breakdown: Do the opens to the
G|-------------------| doublekicks. The guitars do some opens in parts the
C|-000-0-000-0-0000--| bass doesn't, so listen carefully.

(2:02-2:22)
F|-------------------------|
C|-------------------------|
G|-------------------------|
C|-000-000-0-0-0-0-000-000-|

F|-----------------------------------------------|-1st--time-|-2nd-time-|
C|-----------------------------------------------|Repeat-2:02|-end-with-|
G|-------------77775555------(Guitar-Fill-in)----|---5---5---|-5-5-5----|
C|-000-000-0-0----------00~-0x-----------000-000-|-----------|-------0~-|

(2:23-2:29)
F|------------------------------------------------------|
C|------------------------------------------------------|
G|------------------------------------------------------|
C|-000-000--000-000----0-0-0-0-0-0----000-000--000-000--|

Break (2:30-2:31)
F|-----------------------------|
C|-----------------------------|
G|-----------------------------|
C|-88888888-1010101010101010---|

(2:32-2:49)
F|--------------------------|-------------------------|
C|--------------------------|-------------------------|
G|--------------------------|-------------------------|
C|-12(x12)-10-12(x6)-10(x4)-|-8(x12)-7-8(x6)-7x7x7x7x-|

(2:50-3:03)
F|-----------------------------------------------| This is the only part i'm not
C|---------------------------------------| 100---| sure about throughout the
G|-----------------------------------------------| whole song. If it's wrong just
C|-5(x12)-7(x4)-8(x10)-10(10)-5(x10)-8-----------|~| make up your own way.

(3:04-3:08)
F|-----------------------------|
C|-----------------------------|
G|------7(x8)-------10(x8)-----|
C|-7h8---------7h8-------------|

Chorus (3:09-3:24)
F|-----------------------------------|
C|-----------------------------------|
G|-7(x10)-10(x5)--555-3(x10)—4h5-----|
C|-----------------------------------|X2

(3:25-3:31)
F|------------------------|
C|------------------------|
G|------------------------|
C|-5(x6)-6(x6)-8(x10)-----|X2

Silent from 3:32-3:49

Final Bridge (3:50-4:34) (Similar to intro but in reverse)
F|---------------------------------------------------------------|
C|---------------------------------------------------------------|
G|-3333-33333-3333-33333--5-5-5--7777-77777-7777-77777--5-5-5-5-5|
C|---------------------------------------------------------------| X4.5
Show more