• Song:

    Everytime

  • Artist:

    Britney Spears

  • Album:

    Everytime

Everytime by Britney Spears

timz_unix30@yahoo.com
rate nyo naman po..tnx..enjoy lang..

Guitar1 (Capo 3)


     E  E  E  E  E  E  E  E     E  E  E  E  E  E  E  E   
E||--------------------------|--------5-----3--------3--|
B||--------3-----1--------1--|-----3-----3-----3--------|
G||-----0-----0-----0--------|--0-----------------0-----|
D||--------------------------|--------------------------|
A||--3-----------------3-----|--------------------------|
E||--------------------------|--------------------------|


  E  E  E  E  E  E  E  E     E  E  E  E  E  E  E  E   
--------------------------|-----0--7--0--5--0--------|
--------3-----1--------1--|-----------------------1--|
-----0-----0-----0--------|--2-----------------2-----|
--------------------------|--------------------------|
--3-----------------3-----|--------------------------|
--------------------------|--------------------------|


  E  E  E  E  E  E  E  E     E  E  E  E  E  E  E  E   
--------------------------|--------5-----3--------3--|
--------3-----1--------1--|-----3-----3-----3--------|
-----0-----0-----0--------|--0-----------------0-----|
--------------------------|--------------------------|
--3-----------------3-----|--------------------------|
--------------------------|--------------------------|


  E  E  E  E  E  E  E  E     E  E  E  E  E  E  E  E   
--------------------------|-----0--7--0--5--0--------|
--------3-----1--------1--|-----------------------1--|
-----0-----0-----0--------|--2-----------------2-----|
--------------------------|--------------------------|
--3-----------------3-----|--------------------------|
--------------------------|--------------------------|


  E  E  E  E  E  E  E  E     E  E  E  E  E  E  E  E   
--------------------------|--------5-----3--------3--|
--------3-----1--------1--|-----3-----3-----3--------|
-----0-----0-----0--------|--0-----------------0-----|
--------------------------|--------------------------|
--3-----------------3-----|--------------------------|
--------------------------|--------------------------|


  E  E  E  E  E  E  E  E     E  E  E  E  E  E  E  E   
--------------------------|-----0--7--0--5--0--------|
--------3-----1--------1--|-----------------------1--|
-----0-----0-----0--------|--2-----------------2-----|
--------------------------|--------------------------|
--3-----------------3-----|--------------------------|
--------------------------|--------------------------|


  E  E  E  E  E  E  E  E     E  E  E  E  E  E  E  E   
--------0-----------------|--------------------------|
--------------1-----0-----|--------3-----1-----0-----|
-----0-----0-----0-----0--|-----0-----0-----0-----0--|
--------------------------|--------------------------|
--2-----------------------|--3-----------------------|
--------------------------|--------------------------|


  E  E  E  E  E  E  E  E     E  E  E  E  E  E  E  E   
--------0-----------------|--------------------------|
--------------1-----0-----|--------3-----1-----0-----|
-----0-----0-----0-----0--|-----0-----0-----0-----0--|
--2-----------------------|--------------------------|
--------------------------|--------------------------|
--------------------------|--3-----------------------|


  E  E  E  E  E  E  E  E     E  E  E  E  E  E  E  E   
--------3-----0-----------|--------------------------|
-----------1-----1-----1--|--------3-----0-----------|
-----0--------------0-----|-----------0-----0-----0--|
--------------------------|-----0--------------0-----|
--3-----------------------|--------------------------|
--------------------------|--3-----------------------|


  E  E  E  E  E  E  E  E     E  E  E  E  E  E  E  E   
--------------------------|--------------------------|
--------1-----------------|--------------------------|
--------------2-----------|--------------------------|
-----2-----2-----2-----2--|--------2-----4-----------|
--0-----------------3-----|-----2-----2-----2--0--2--|
--------------------------|--0-----------------------|


  E  E  E  E  E  E  E  E     E  E  E  E  E  E  E  E   
--------3-----0-----------|--------------------------|
-----------1-----1-----1--|--------0-----1-----3--0--|
--------------------0-----|-----------0-----2--------|
--------------------------|--------------------------|
-----3--------------------|-----2--------------------|
--1-----------------------|--3-----------------------|


  E  E  E  E  E  E  E  E     E  E  E  E  E  E  E  E   
--------3-----0-----------|--------------------------|
-----------1-----1-----1--|--------3-----0-----------|
-----0--------------0-----|-----------0-----0-----0--|
--------------------------|-----0--------------0-----|
--3-----------------------|--------------------------|
--------------------------|--3-----------------------|


  E  E  E  E  E  E  E  E     E  E  E  E  E  E  E  E   
--------------------------|--------------------------|
--------1-----------------|--------------------------|
--------------2-----------|--------------------------|
-----2-----2-----2-----2--|--------2-----4-----------|
--0-----------------3-----|-----2-----2-----2--0--2--|
--------------------------|--0-----------------------|


  E  E  E  E  E  E  E  E     E  E  E  E  E  E  E  E   
--------3-----0-----------|--------------------------|
-----------1-----1-----1--|--------0-----1-----3--0--|
--------------------0-----|-----------0-----2--------|
--------------------------|--------------------------|
-----3--------------------|-----2--------------------|
--1-----------------------|--3-----------------------|


  E  E  E  E  E  E  E  E     E  E  E  E  E  E  E  E   
--------------------------|--------5-----3--------3--|
--------3-----1--------1--|-----3-----3-----3--------|
-----0-----0-----0--------|--0-----------------0-----|
--------------------------|--------------------------|
--3-----------------3-----|--------------------------|
--------------------------|--------------------------|


  E  E  E  E  E  E  E  E     E  E  E  E  E  E  E  E   
--------------------------|-----0--7--0--5--0--------|
--------3-----1--------1--|-----------------------1--|
-----0-----0-----0--------|--2-----------------2-----|
--------------------------|--------------------------|
--3-----------------3-----|--------------------------|
--------------------------|--------------------------|


  E  E  E  E  E  E  E  E     E  E  E  E  E  E  E  E   
--------------------------|--------5-----3--------3--|
--------3-----1--------1--|-----3-----3-----3--------|
-----0-----0-----0--------|--0-----------------0-----|
--------------------------|--------------------------|
--3-----------------3-----|--------------------------|
--------------------------|--------------------------|


  E  E  E  E  E  E  E  E     E  E  E  E  E  E  E  E   
--------------------------|-----0--7--0--5--0--------|
--------3-----1--------1--|-----------------------1--|
-----0-----0-----0--------|--2-----------------2-----|
--------------------------|--------------------------|
--3-----------------3-----|--------------------------|
--------------------------|--------------------------|


  E  E  E  E  E  E  E  E     E  E  E  E  E  E  E  E   
--------------------------|--------5-----3--------3--|
--------3-----1--------1--|-----3-----3-----3--------|
-----0-----0-----0--------|--0-----------------0-----|
--------------------------|--------------------------|
--3-----------------3-----|--------------------------|
--------------------------|--------------------------|


  E  E  E  E  E  E  E  E     E  E  E  E  E  E  E  E   
--------------------------|-----0--7--0--5--0--------|
--------3-----1--------1--|-----------------------1--|
-----0-----0-----0--------|--2-----------------2-----|
--------------------------|--------------------------|
--3-----------------3-----|--------------------------|
--------------------------|--------------------------|


  E  E  E  E  E  E  E  E     E  E  E  E  E  E  E  E   
--------0-----------------|--------------------------|
--------------1-----0-----|--------3-----1-----0-----|
-----0-----0-----0-----0--|-----0-----0-----0-----0--|
--------------------------|--------------------------|
--2-----------------------|--3-----------------------|
--------------------------|--------------------------|


  E  E  E  E  E  E  E  E     E  E  E  E  E  E  E  E   
--------0-----------------|--------------------------|
--------------1-----0-----|--------3-----1-----0-----|
-----0-----0-----0-----0--|-----0-----0-----0-----0--|
--2-----------------------|--------------------------|
--------------------------|--------------------------|
--------------------------|--3-----------------------|


  E  E  E  E  E  E  E  E     E  E  E  E  E  E  E  E   
--------3-----0-----------|--------------------------|
-----------1-----1-----1--|--------3-----0-----------|
-----0--------------0-----|-----------0-----0-----0--|
--------------------------|-----0--------------0-----|
--3-----------------------|--------------------------|
--------------------------|--3-----------------------|


  E  E  E  E  E  E  E  E     E  E  E  E  E  E  E  E   
--------------------------|--------------------------|
--------1-----------------|--------------------------|
--------------2-----------|--------------------------|
-----2-----2-----2-----2--|--------2-----4-----------|
--0-----------------3-----|-----2-----2-----2--0--2--|
--------------------------|--0-----------------------|


  E  E  E  E  E  E  E  E     E  E  E  E  E  E  E  E   
--------3-----0-----------|--------------------------|
-----------1-----1-----1--|--------0-----1-----3--0--|
--------------------0-----|-----------0-----2--------|
--------------------------|--------------------------|
-----3--------------------|-----2--------------------|
--1-----------------------|--3-----------------------|


  E  E  E  E  E  E  E  E     E  E  E  E  E  E  E  E   
--------3-----0-----------|--------------------------|
-----------1-----1-----1--|--------3-----0-----------|
-----0--------------0-----|-----------0-----0-----0--|
--------------------------|-----0--------------0-----|
--3-----------------------|--------------------------|
--------------------------|--3-----------------------|


  E  E  E  E  E  E  E  E     E  E  E  E  E  E  E  E   
--------------------------|--------------------------|
--------1-----------------|--------------------------|
--------------2-----------|--------------------------|
-----2-----2-----2-----2--|--------2-----4-----------|
--0-----------------3-----|-----2-----2-----2--0--2--|
--------------------------|--0-----------------------|


  E  E  E  E  E  E  E  E     E  E  E  E  E  E  E  E     W                 
--------3-----0-----------|--------------------------|-------------------|
-----------1-----1-----1--|--------0-----1-----3--0--|-------------------|
--------------------0-----|-----------0-----2--------|-------------------|
--------------------------|--------------------------|-------------------|
-----3--------------------|-----2--------------------|-------------------|
--1-----------------------|--3-----------------------|-------------------|


  W                   W                   W                   W                 
-------------------|-------------------|-------------------|-------------------|
-------------------|-------------------|-------------------|-------------------|
-------------------|-------------------|-------------------|-------------------|
-------------------|-------------------|-------------------|-------------------|
-------------------|-------------------|-------------------|-------------------|
-------------------|-------------------|-------------------|-------------------|


  W                   W                   W                   W                 
-------------------|-------------------|-------------------|-------------------|
-------------------|-------------------|-------------------|-------------------|
-------------------|-------------------|-------------------|-------------------|
-------------------|-------------------|-------------------|-------------------|
-------------------|-------------------|-------------------|-------------------|
-------------------|-------------------|-------------------|-------------------|


  W                   E  E  E  E  E  E  E  E     E  E  E  E  E  E  E  E   
-------------------|--------------------------|--------5-----3--------3--|
-------------------|--------3-----1--------1--|-----3-----3-----3--------|
-------------------|-----0-----0-----0--------|--0-----------------0-----|
-------------------|--------------------------|--------------------------|
-------------------|--3-----------------3-----|--------------------------|
-------------------|--------------------------|--------------------------|


  E  E  E  E  E  E  E  E     E  E  E  E  E  E  E  E   
--------------------------|-----0--7--0--5--0--------|
--------3-----1--------1--|-----------------------1--|
-----0-----0-----0--------|--2-----------------2-----|
--------------------------|--------------------------|
--3-----------------3-----|--------------------------|
--------------------------|--------------------------|


  E  E  E  E  E  E  E  E     E  E  E  E  E  E  E  E   
--------------------------|--------5-----3--------3--|
--------3-----1--------1--|-----3-----3-----3--------|
-----0-----0-----0--------|--0-----------------0-----|
--------------------------|--------------------------|
--3-----------------3-----|--------------------------|
--------------------------|--------------------------|


  E  E  E  E  E  E  E  E     E  E  E  E  E  E  E  E   
--------------------------|-----0--7--0--5--0--------|
--------3-----1--------1--|-----------------------1--|
-----0-----0-----0--------|--2-----------------2-----|
--------------------------|--------------------------|
--3-----------------3-----|--------------------------|
--------------------------|--------------------------|


  E  E  E  E  E  E  E  E     E  E  E  E  E  E  E  E   
--------0-----------------|--------------------------|
--------------1-----0-----|--------3-----1-----0-----|
-----0-----0-----0-----0--|-----0-----0-----0-----0--|
--------------------------|--------------------------|
--2-----------------------|--3-----------------------|
--------------------------|--------------------------|


  E  E  E  E  E  E  E  E     E  E  E  E  E  E  E  E   
--------0-----------------|--------------------------|
--------------1-----0-----|--------3-----1-----0-----|
-----0-----0-----0-----0--|-----0-----0-----0-----0--|
--2-----------------------|--------------------------|
--------------------------|--------------------------|
--------------------------|--3-----------------------|


  E  E  E  E  E  E  E  E     E  E  E  E  E  E  E  E   
--------3-----0-----------|--------------------------|
-----------1-----1-----1--|--------3-----0-----------|
-----0--------------0-----|-----------0-----0-----0--|
--------------------------|-----0--------------0-----|
--3-----------------------|--------------------------|
--------------------------|--3-----------------------|


  E  E  E  E  E  E  E  E     E  E  E  E  E  E  E  E   
--------------------------|--------------------------|
--------1-----------------|--------------------------|
--------------2-----------|--------------------------|
-----2-----2-----2-----2--|--------2-----4-----------|
--0-----------------3-----|-----2-----2-----2--0--2--|
--------------------------|--0-----------------------|


  E  E  E  E  E  E  E  E     E  E  E  E  E  E  E  E   
--------3-----0-----------|--------------------------|
-----------1-----1-----1--|--------0-----1-----3--0--|
--------------------0-----|-----------0-----2--------|
--------------------------|--------------------------|
-----3--------------------|-----2--------------------|
--1-----------------------|--3-----------------------|


  E  E  E  E  E  E  E  E     E  E  E  E  E  E  E  E   
--------3-----0-----------|--------------------------|
-----------1-----1-----1--|--------3-----0-----------|
-----0--------------0-----|-----------0-----0-----0--|
--------------------------|-----0--------------0-----|
--3-----------------------|--------------------------|
--------------------------|--3-----------------------|


  E  E  E  E  E  E  E  E     E  E  E  E  E  E  E  E   
--------------------------|--------------------------|
--------1-----------------|--------------------------|
--------------2-----------|--------------------------|
-----2-----2-----2-----2--|--------2-----4-----------|
--0-----------------3-----|-----2-----2-----2--0--2--|
--------------------------|--0-----------------------|


  E  E  E  E  E  E  E  E     E  E  E  E  E  E  E  E   
--------3-----0-----------|--------------------------|
-----------1-----1-----1--|--------0-----1-----3--0--|
--------------------0-----|-----------0-----2--------|
--------------------------|--------------------------|
-----3--------------------|-----2--------------------|
--1-----------------------|--3-----------------------|


  E  E  E  E  E  E  E  E     E  E  E  E  E  E  E  E   
--------3-----0-----------|--------------------------|
-----------1-----1-----1--|--------3-----0-----------|
-----0--------------0-----|-----------0-----0-----0--|
--------------------------|-----0--------------0-----|
--3-----------------------|--------------------------|
--------------------------|--3-----------------------|


  E  E  E  E  E  E  E  E     E  E  E  E  E  E  E  E   
--------------------------|--------------------------|
--------1-----------------|--------------------------|
--------------2-----------|--------------------------|
-----2-----2-----2-----2--|--------2-----4-----------|
--0-----------------3-----|-----2-----2-----2--0--2--|
--------------------------|--0-----------------------|


  E  E  E  E  E  E  E  E     E  E  E  E  E  E  E  E   
--------3-----0-----------|--------------------------|
-----------1-----1-----1--|--------0-----1-----3--0--|
--------------------0-----|-----------0-----2--------|
--------------------------|--------------------------|
-----3--------------------|-----2--------------------|
--1-----------------------|--3-----------------------|


                   NH                           
  E  E  E  E  E    Q.        W                  
-----------0--3--<>8------|--L----------------||
--------1-----------------|-------------------||
-----0--------------------|-------------------||
--------------------------|-------------------||
--3-----------------------|-------------------||
--------------------------|-------------------||



piano transcript 2 guitar..


timz_unix30@yahoo.com
rate pls..tnx..




Piano


     E  E  E  E  E  E  E  E     E  E  E  E  E  E  E  E   
E||--------1-----------------|-----1--8-----6--------6--|
B||--------------4--------4--|-----------6-----6--------|
G||-----3-----3-----3--------|--3-----------------3-----|
D||--1-----------------1-----|--------------------------|
A||--------------------------|--------------------------|
E||--------------------------|--------------------------|


  E  E  E  E  E  E  E  E     E  E   E  E  E  E  E  E   
--------1-----------------|-----3--10-----8-----------|
--------------4--------4--|--1---------8-----8-----4--|
-----3-----3-----3--------|---------------------5-----|
--------------------1-----|---------------------------|
--6-----------------------|---------------------------|
--------------------------|---------------------------|


  E  E  E  E  E  E  E  E     E  E  E  E  E  E  E  E   
--------1-----------------|-----1--8-----6--------6--|
--------------4--------4--|-----------6-----6--------|
-----3-----3-----3--------|--3-----------------3-----|
--------------------1-----|--------------------------|
--6-----------------------|--------------------------|
--------------------------|--------------------------|


  E  E  E  E  E  E  E  E     E  E   E  E  E  E  E  E   
--------1-----------------|-----3--10-----8-----------|
--------------4--------4--|--1---------8-----8-----4--|
-----3-----3-----3--------|---------------------5-----|
--------------------1-----|---------------------------|
--6-----------------------|---------------------------|
--------------------------|---------------------------|


  E  E  E  E  E  E  E  E     E  E  E  E  E  E  E  E   
--------1-----------------|-----1--8-----6--------6--|
--------------4--------4--|-----------6-----6--------|
-----3-----3-----3--------|--3-----------------3-----|
--------------------1-----|--------------------------|
--6-----------------------|--------------------------|
--------------------------|--------------------------|


  E  E  E  E  E  E  E  E     E  E   E  E  E  E  E  E   
--------1-----------------|-----3--10-----8-----------|
--------------4--------4--|--1---------8-----8-----4--|
-----3-----3-----3--------|---------------------5-----|
--------------------1-----|---------------------------|
--6-----------------------|---------------------------|
--------------------------|---------------------------|


  E  E  E  E  E  E  E  E     E  E  E  E  E  E  E  E   
--------3-----------------|--------1-----------------|
--------------4-----3-----|--------------4-----3-----|
-----3-----3-----3-----3--|-----3-----3-----3-----3--|
--------------------------|--1-----------------------|
--5-----------------------|--------------------------|
--------------------------|--------------------------|


  E  E  E  E  E  E  E  E     E  E  E  E  E  E  E  E   
--------3-----------------|--------1-----------------|
--------------4-----3-----|--------------4-----3-----|
--0--3-----3-----3-----3--|-----3-----3-----3-----3--|
--------------------------|--------------------------|
--------------------------|--1-----------------------|
--------------------------|--------------------------|


  E  E  E  E  E  E  E  E     E  E  E  E  E  E  E  E   
--------6-----3-----------|--------1-----------------|
-----------4-----4-----4--|--------------3-----------|
-----3--------------3-----|-----------3-----3-----3--|
--1-----------------------|-----3--------------3-----|
--------------------------|--1-----------------------|
--------------------------|--------------------------|


  E  E  E  E  E  E  E  E     E  E  E  E  E  E  E  E   
--------------------------|--------------------------|
--------4-----1-----------|--------------------------|
-----0-----0-----0-----0--|--------0-----2-----------|
--------------------1-----|-----0-----0-----0-----0--|
--3-----------------------|--------------------3-----|
--------------------------|--3-----------------------|


  E  E  E  E  E  E  E  E     E  E  E  E  E  E  E  E   
--------6-----3-----------|--------------------------|
-----------4-----4-----4--|--------3-----4-----6-----|
--------------------3-----|-----------3-----5-----7--|
-----1--------------------|-----0--------------------|
--------------------------|--1-----------------------|
--4-----------------------|--------------------------|


  E  E  E  E  E  E  E  E     E  E  E  E  E  E  E  E   
--------6-----------------|--------------------------|
--------------8-----------|--------6-----------------|
-----------8-----8-----8--|--------------7-----------|
-----8--------------8-----|-----------8-----8-----8--|
--6-----------------------|-----8--------------8-----|
--------------------------|--6-----------------------|


  E  E  E  E  E  E  E  E     E  E  E  E  E  E  E  E   
--------------------------|--------------------------|
--------------------------|--------------------------|
-----0--8--0--5--0-----0--|--------0-----2-----------|
--------------------1-----|-----0-----0-----0-----0--|
--------------------------|--------------------3-----|
--8-----------------------|--3-----------------------|


  E  E  E  E  E  E  E  E     E  E  E  E  E  E  E  E   
--------6-----3-----------|--------------------------|
-----------4-----4-----4--|--------3-----4-----6-----|
--------------------3-----|-----------3-----5-----7--|
-----1--------------------|-----0--------------------|
--------------------------|--1-----------------------|
--4-----------------------|--------------------------|


  E  E  E  E  E  E  E  E     E  E  E  E  E  E  E  E   
--------------------------|--------8-----6--------6--|
--------6-----------------|-----6-----6-----6--------|
--------------8--------8--|--------------------3-----|
-----8-----8-----8--------|--8-----------------------|
--6-----------------6-----|--------------------------|
--------------------------|--------------------------|


  E  E  E  E  E  E  E  E     E  E   E  E  E  E  E  E   
--------1-----------------|-----3--10-----8-----------|
--------------4--------4--|--1---------8-----8-----4--|
-----3-----3-----3--------|---------------------5-----|
--------------------1-----|---------------------------|
--6-----------------------|---------------------------|
--------------------------|---------------------------|


  E  E  E  E  E  E  E  E     E  E  E  E  E  E  E  E   
--------1-----------------|-----1--8-----6--------6--|
--------------4--------4--|-----------6-----6--------|
-----3-----3-----3--------|--3-----------------3-----|
--------------------1-----|--------------------------|
--6-----------------------|--------------------------|
--------------------------|--------------------------|


  E  E  E  E  E  E  E  E     E  E   E  E  E  E  E  E   
--------1-----------------|-----3--10-----8-----------|
--------------4--------4--|--1---------8-----8-----4--|
-----3-----3-----3--------|---------------------5-----|
--------------------1-----|---------------------------|
--6-----------------------|---------------------------|
--------------------------|---------------------------|


  E  E  E  E  E  E  E  E     E  E  E  E  E  E  E  E   
--------1-----------------|-----1--8-----6--------6--|
--------------4--------4--|-----------6-----6--------|
-----3-----3-----3--------|--3-----------------3-----|
--------------------1-----|--------------------------|
--6-----------------------|--------------------------|
--------------------------|--------------------------|


  E  E  E  E  E  E  E  E     E  E   E  E  E  E  E  E   
--------1-----------------|-----3--10-----8-----------|
--------------4--------4--|--1---------8-----8-----4--|
-----3-----3-----3--------|---------------------5-----|
--------------------1-----|---------------------------|
--6-----------------------|---------------------------|
--------------------------|---------------------------|


  E  E  E  E  E  E  E  E     E  E  E  E  E  E  E  E   
--------3-----------------|--------1-----------------|
--------------4-----3-----|--------------4-----3-----|
-----3-----3-----3-----3--|-----3-----3-----3-----3--|
--------------------------|--1-----------------------|
--5-----------------------|--------------------------|
--------------------------|--------------------------|


  E  E  E  E  E  E  E  E     E  E  E  E  E  E  E  E   
--------3-----------------|--------1-----------------|
--------------4-----3-----|--------------4-----3-----|
--0--3-----3-----3-----3--|-----3-----3-----3-----3--|
--------------------------|--------------------------|
--------------------------|--1-----------------------|
--------------------------|--------------------------|


  E  E  E  E  E  E  E  E     E  E  E  E  E  E  E  E   
--------6-----3-----------|--------1-----------------|
-----------4-----4-----4--|--------------3-----------|
-----3--------------3-----|-----------3-----3-----3--|
--1-----------------------|-----3--------------3-----|
--------------------------|--1-----------------------|
--------------------------|--------------------------|


  E  E  E  E  E  E  E  E     E  E  E  E  E  E  E  E   
--------------------------|--------------------------|
--------4-----1-----------|--------------------------|
-----0-----0-----0-----0--|--------0-----2-----------|
--------------------1-----|-----0-----0-----0-----0--|
--3-----------------------|--------------------3-----|
--------------------------|--3-----------------------|


  E  E  E  E  E  E  E  E     E  E  E  E  E  E  E  E   
--------6-----3-----------|--------------------------|
-----------4-----4-----4--|--------3-----4-----6-----|
--------------------3-----|-----------3-----5-----7--|
-----1--------------------|-----0--------------------|
--------------------------|--1-----------------------|
--4-----------------------|--------------------------|


  E  E  E  E  E  E  E  E     E  E  E  E  E  E  E  E   
--------6-----------------|--------------------------|
--------------8-----------|--------6-----------------|
-----------8-----8-----8--|--------------7-----------|
-----8--------------8-----|-----------8-----8-----8--|
--6-----------------------|-----8--------------8-----|
--------------------------|--6-----------------------|


  E  E  E  E  E  E  E  E     E  E  E  E  E  E  E  E   
--------------------------|--------------------------|
--------------------------|--------------------------|
-----0--8--0--5--0-----0--|--------0-----2-----------|
--------------------1-----|-----0-----0-----0-----0--|
--------------------------|--------------------3-----|
--8-----------------------|--3-----------------------|


  E  E  E  E  E  E  E  E     E  E  E  E  E  E  E  E   
--------6-----3-----------|--------------------------|
-----------4-----4-----4--|--------3-----4-----6-----|
--------------------3-----|-----------3-----5-----7--|
-----1--------------------|-----0--------------------|
--------------------------|--1-----------------------|
--4-----------------------|--------------------------|


  E   E   E   E   E   E   E   E     E   E   E   E   E   E   E   E   
-----27--20------20--27--20------|-----23--------------23----------|
-------------20--------------20--|---------21------21------21------|
---------------------------------|-------------20--------------20--|
---------------------------------|---------------------------------|
---------------------------------|---------------------------------|
---------------------------------|---------------------------------|


  E   E   E   E   E   E   E   E     E   E   E   E   E   E   E   E   
---------20------25--20------20--|---------------------------------|
-----18------18------------------|-----------------20--------------|
-------------------------22------|---------------------------------|
---------------------------------|---------22----------22------22--|
---------------------------------|-----22------22----------22------|
---------------------------------|---------------------------------|


  E   E   E   E   E   E   E   E     E   E   E   E   E   E   E   E   
-----27--20------20--27--20------|-----23--------------23----------|
-------------20--------------20--|---------21------21------21------|
---------------------------------|-------------20--------------20--|
---------------------------------|---------------------------------|
---------------------------------|---------------------------------|
---------------------------------|---------------------------------|


  E   E   E   E   E   E   E   E     E   E   E   E   Q     Q     
---------20------25--20------20--|-----------------------20----|
-----18------18------------------|-----------------------------|
-------------------------22------|-----------------------------|
---------------------------------|---------22------22----------|
---------------------------------|-----22------22--------------|
---------------------------------|-----------------------------|


   W                   W                   E  E  E  E  E  E  E  E   
--27----------------|-------------------|--------1-----------------|
--------------------|-------------------|--------------4--------4--|
--------------------|-------------------|-----3-----3-----3--------|
--------------------|-------------------|--1-----------------1-----|
--------------------|-------------------|--------------------------|
--------------------|-------------------|--------------------------|


  E  E  E  E  E  E  E  E     E  E  E  E  E  E  E  E   
-----1--8-----6--------6--|--------1-----------------|
-----------6-----6--------|--------------4--------4--|
--3-----------------3-----|-----3-----3-----3--------|
--------------------------|--------------------1-----|
--------------------------|--6-----------------------|
--------------------------|--------------------------|


  E  E   E  E  E  E  E  E     E  E  E  E  E  E  E  E   
-----3--10-----8-----------|--------1-----------------|
--1---------8-----8-----4--|--------------4--------4--|
---------------------5-----|-----3-----3-----3--------|
---------------------------|--------------------1-----|
---------------------------|--6-----------------------|
---------------------------|--------------------------|


  E  E  E  E  E  E  E  E     E  E  E  E  E  E  E  E   
-----1--8-----6--------6--|--------1-----------------|
-----------6-----6--------|--------------4--------4--|
--3-----------------3-----|-----3-----3-----3--------|
--------------------------|--------------------1-----|
--------------------------|--6-----------------------|
--------------------------|--------------------------|


  E  E   E  E  E  E  E  E     E  E  E  E  E  E  E  E   
-----3--10-----8-----------|--------3-----------------|
--1---------8-----8-----4--|--------------4-----3-----|
---------------------5-----|-----3-----3-----3-----3--|
---------------------------|--------------------------|
---------------------------|--5-----------------------|
---------------------------|--------------------------|


  E  E  E  E  E  E  E  E     E  E  E  E  E  E  E  E   
--------1-----------------|--------3-----------------|
--------------4-----3-----|--------------4-----3-----|
-----3-----3-----3-----3--|--0--3-----3-----3-----3--|
--1-----------------------|--------------------------|
--------------------------|--------------------------|
--------------------------|--------------------------|


  E  E  E  E  E  E  E  E     E  E  E  E  E  E  E  E   
--------1-----------------|--------6-----3-----------|
--------------4-----3-----|-----------4-----4-----4--|
-----3-----3-----3-----3--|-----3--------------3-----|
--------------------------|--1-----------------------|
--1-----------------------|--------------------------|
--------------------------|--------------------------|


  E  E  E  E  E  E  E  E     E  E  E  E  E  E  E  E   
--------1-----------------|--------------------------|
--------------3-----------|--------4-----1-----------|
-----------3-----3-----3--|-----0-----0-----0-----0--|
-----3--------------3-----|--------------------1-----|
--1-----------------------|--3-----------------------|
--------------------------|--------------------------|


  E  E  E  E  E  E  E  E     E  E  E  E  E  E  E  E   
--------------------------|--------6-----3-----------|
--------------------------|-----------4-----4-----4--|
--------0-----2-----------|--------------------3-----|
-----0-----0-----0-----0--|-----1--------------------|
--------------------3-----|--------------------------|
--3-----------------------|--4-----------------------|


  E  E  E  E  E  E  E  E     E  E  E  E  E  E  E  E   
--------------------------|--------6-----------------|
--------3-----4-----6-----|--------------8-----------|
-----------3-----5-----7--|-----------8-----8-----8--|
-----0--------------------|-----8--------------8-----|
--1-----------------------|--6-----------------------|
--------------------------|--------------------------|


  E  E  E  E  E  E  E  E     E  E  E  E  E  E  E  E   
--------------------------|--------------------------|
--------6-----------------|--------------------------|
--------------7-----------|-----0--8--0--5--0-----0--|
-----------8-----8-----8--|--------------------1-----|
-----8--------------8-----|--------------------------|
--6-----------------------|--8-----------------------|


  E  E  E  E  E  E  E  E     E  E  E  E  E  E  E  E   
--------------------------|--------6-----3-----------|
--------------------------|-----------4-----4-----4--|
--------0-----2-----------|--------------------3-----|
-----0-----0-----0-----0--|-----1--------------------|
--------------------3-----|--------------------------|
--3-----------------------|--4-----------------------|


  E  E  E  E  E  E  E  E     E  E  E  E  E  E  E  E   
--------------------------|--------6-----------------|
--------3-----4-----6-----|--------------8-----------|
-----------3-----5-----7--|-----------8-----8-----8--|
-----0--------------------|-----8--------------8-----|
--1-----------------------|--6-----------------------|
--------------------------|--------------------------|


  E  E  E  E  E  E  E  E     E  E  E  E  E  E  E  E   
--------------------------|--------------------------|
--------6-----------------|--------------------------|
--------------7-----------|-----0--8--0--5--0-----0--|
-----------8-----8-----8--|--------------------1-----|
-----8--------------8-----|--------------------------|
--6-----------------------|--8-----------------------|


  E  E  E  E  E  E  E  E     E  E  E  E  E  E  E  E   
--------------------------|--------6-----3-----------|
--------------------------|-----------4-----4-----4--|
--------0-----2-----------|--------------------3-----|
-----0-----0-----0-----0--|-----1--------------------|
--------------------3-----|--------------------------|
--3-----------------------|--4-----------------------|


  E  E  E  E  E  E  E  E     E  E  E  E  E   E   E   E      W                  
--------------------------|--------------6--11--18--23--|--27----------------||
--------3-----4-----6-----|-----------8-----------------|--------------------||
-----------3-----5-----7--|--------8--------------------|--------------------||
-----0--------------------|-----8-----------------------|--------------------||
--1-----------------------|--6--------------------------|--------------------||
--------------------------|-----------------------------|--------------------||


Lyrics:

Everytime


Notice me
Take my hand
Why are we
Strangers when
Our love is strong
Why carry on without me?

Everytime I try to fly
I fall without my wings
I feel so small
I guess I need you baby
And everytime I see you in my dreams
I see your face, it's haunting me
I guess I need you baby

I make believe
That you are here
It's the only way
I see clear
What have I done
You seem to move on easy

And everytime I try to fly
I fall without my wings
I feel so small
I guess I need you baby
And everytime I see you in my dreams
I see your face, you're haunting me
I guess I need you baby

I may have made it rain
Please forgive me
My weakness caused you pain
And this song is my sorry

Ohhhh

At night I pray
That soon your face
Will fade away

And everytime I try to fly
I fall without my wings
I feel so small
I guess I need you baby
And everytime I see you in my dreams
I see your face, you're haunting me
I guess I need you baby

Duration Legend
---------------
W - whole
H - half
Q - quarter
E - 8th
S - 16th
T - 32nd
X - 64th
. - note dotted
|-n-|  - n-tuplets


Tablature Legend
----------------
L - tied note
x - dead note
g - grace note
(n) - ghost note
> - accentuded note
NH - natural harmonic
AH - artificial harmonic
TH - tapped harmonic
SH - semi harmonic
PH - pitch harmonic
h - hammer on
p - pull off
b - bend
br - bendRelease
pb - preBend
pbr - preBendRelease
brb - bendReleaseBend
\n/ - tremolo bar dip
\n - tremolo bar dive
-/n - tremolo bar Release up
/n\ - tremolo bar inverted dip
/n - tremolo bar return
-\n - tremolo bar Release down
S - shift slide
s - legato slide
/ -  slide into from below or out of upwards
\ -  slide into from above or out of downwards
~ - vibrato
W - wide vibrato
tr - trill
TP - tremolo picking
T - tapping
S - slap
P - pop
< - fade in
^ - brush up
v - brush down
parate naman pls..tnx..
Show more