Artist:     Broilers
Title:      Heimat
Tabbed by:  Daniel Welzbacher


short and crisp: d | ais | c | a

	Intro
G|----------------------------|
D|----------------------------|
A|5-005-0-1--1--3---3----77--7|			2x
E|---------11-1---33--3-5---5-|

	Strophe
G|------------------------------|
D|------------------------------|
A|5-0-5-0-1---1---3--3-----7---7|		3x
E|----------1---1---3--3-5---5--|

	Strophe 1.2
G|------------------------------|
D|------------------------------|
A|5-0-5-0-1---1---3--3----------|		1x
E|----------1---1---3--3--------|

	Chorus
G|----------------------------|
D|----------------------------|
A|5-005-0-1--1--3---3----77--7|			3x
E|---------11-1---33--3-5---5-|


					Strophe 3x
				Strophe 1.2	1x
	Chorus
G|----------------------------|
D|----------------------------|
A|5-005-0-1--1--3---3----77--7|			1x
E|---------11-1---33--3-5---5-|


	Chorus1.2
G|------------------------------|
D|------------------------------|
A|5-005-0-1--1--3---3----77--7--|		1x
E|---------11-1---33--3-5---5-5~|

	Interlude
[..denkst dir...]
G|---------------------------|
D|---------------------------|
A|5~~~~~~1~~~~-------3~~~~~~-|			4x
E|------------1~~~~~~--------|

G|----------------------------------|
D|----------------------------------|
A|5~~~~~~1~~~~-------3~~~~~~5~~~~~~-|		1x
E|------------1~~~~~~---------------|

Guitar solo+chorus
G|----------------------------|
D|----------------------------|
A|5-005-0-1--1--3---3----77--7|			8x
E|---------11-1---33--3-5---5-|

Outro
[Wat Wat? denn ......das]
G|----------------------------------|
D|----------------------------------|
A|-------000-----------3-5~~~~~~~~~~|		1x
E|----------------------------------|
Show more