• Song:

    Cuts like a knife

  • Artist:

    Bryan Adams

  • Album:

    Anthology (set - non EU...

Bryan Adams – cuts like a knife solo



Tabbed by: Sanjeev George and Thomas George

Email:SanjeevGeorge123@yahoo.co.in

Please rate it 
Tuning:standard

e|---------------------------------------------------------------------------|
B|--7/10--13-13-13-13-13-13-13-13-12-12-12-12-12-12-12-12-11-11-11-11-11-11--|
G|---------------------------------------------------------------------------|
D|------------------|Pick tapping trills throughout the notes|---------------|
A|---------------------------------------------------------------------------|
E|---------------------------------------------------------------------------|

e|-------------------------------------------10----------10-10-------10------|
B|-11-11-12-12-12-12-13-13-13-13-13b15v---------10-13b15-------13b15----13---|
G|---------------------------------------------------------------------------|
D|---|Pick tapping trills|---------------------------------------------------|
A|---------------------------------------------------------------------------|
E|---------------------------------------------------------------------------|

e|-----------------------------------------14----14------------------------------|
B|-10-13-12-10-12p10-12b13—r13p10-------------15----17b19v----17b19r17b19r17b19r-|
G|--------------------------------12v--------------------------------------------|
D|-------------------------------------------------------------------------------|
A|-------------------------------------------------------------------------------|
E|-------------------------------------------------------------------------------|

e|-----------14b15—14b15v----------17----19----17----19----17-20-20b22---22v--22\--|
B|-17p15---------------------19----------------------------------------------------|
G|-------16---------------------19----19----19----19----19-------------------------|
D|---------------------------------------------------------------------------------|
A|---------------------------------------------------------------------------------|
E|---------------------------------------------------------------------------------|

| /  slide up
| \ slide down
| h  hammer-on
| p  pull-off
| ~ let note/notes ring
| v  vibrato
Show more