• Song:

    Hearts On Fire

  • Artist:

    Bryan Adams

  • Album:

    Anthology (set - non EU...

Bryan Adams - Hearts on Fire

Tuning: Standard

Info: Bryan's and Keith's parts blend. This is for one guitar version.


0:00
E-----------------------------| 
B---5-5-----------------------| 
G---4-4--4-4-----------4------| 
D---2-2--4-4-----4-----4------| x4 
A--------2-2-----4-----2------| 
E----------------2------------|

0:16
E-----------------------------| 
B---5-5-----------------------| 
G---4-4--4-4----------4-4-----| 
D---2-2--4-4-----4-4--4-4-----| x3
A--------2-2-----4-4--2-2-----| 
E----------------2-2----------|

0:28
E-----------------------------| 
B-----------------------------| 
G-----4-4--4-4-4-------4------| 
D-----4-4--4-4-4---4---4------| 
A-----2-2--2-2-2---4---2------| 
E------------------2----------|

REF
0:33
E--------------------------------------------------------| 
B--------------------------------------------------------| 
G--------------------3--4---4------------------3--4---4--| 
D-----6-6--6-6-6-6---3--4---4---4-4--4-4-4-4---3--4---4--| x2
A-----6-6--6-6-6-6---1--2---2---4-4--4-4-4-4---1--2---2--| 
E-----4-4--4-4-4-4--------------2-2--2-2-2-2-------------|


0:50
E-----------------------------| 
B---5-5-----------------------| 
G---4-4--4-4-----------4------| 
D---2-2--4-4-----4-----4------| x2
A--------2-2-----4-----2------| 
E----------------2------------|

0:58
E-----------------------------| 
B---5-5-----------------------| 
G---4-4--4-4----------4-4-----| 
D---2-2--4-4-----4-4--4-4-----| x3
A--------2-2-----4-4--2-2-----| 
E----------------2-2----------|

1:10
E-----------------------------| 
B-----------------------------| 
G-----4-4--4-4-4-------4------| 
D-----4-4--4-4-4---4---4------| 
A-----2-2--2-2-2---4---2------| 
E------------------2----------|

REF
1:14
E--------------------------------------------------------| 
B--------------------------------------------------------| 
G--------------------3--4---4------------------3--4---4--| 
D-----6-6--6-6-6-6---3--4---4---4-4--4-4-4-4---3--4---4--| x2
A-----6-6--6-6-6-6---1--2---2---4-4--4-4-4-4---1--2---2--| 
E-----4-4--4-4-4-4--------------2-2--2-2-2-2-------------|

BRIDGE
1:31
E----------------------------| 
B----------------------------| 
G----6/8-8-8-6---6/8-6-4-----| 
D----6/8-8-8-6---6/8-6-4-----| x2
A----------------------------|
E----------------------------|


SOLO - Keith Scott only
1:38
E----------------------------------------------------9^11-9-7-9~7~---| 
B-------------------------7--------------7-7---7-7-9-----------------| 
G-----------------4--6^8----4~-------6/8-----8-----------------------| 
D--------6-9-6~----------------6-4-----------------------------------| 
A----6-9-------------------------------------------------------------|
E--------------------------------------------------------------------|

E------------------------------------------------16-19-21^23--21^23--21-19-21-21^23--21-19-21~--|
B----19/21~-19-16-19~-21-------------14/16~19-19------------------------------------------------| 
G------------------------16~--------------------------------------------------------------------| 
D----------------------------18-16--------------------------------------------------------------| 
A-----------------------------------------------------------------------------------------------|
E-----------------------------------------------------------------------------------------------|

2:04
E------------------| 
B---7^9---9--------| 
G-----------8------| 
D------------------| 
A------------------|
E------------------|

2:15
E-----------------------------| 
B---5-5-----------------------| 
G---4-4--4-4-----------4------| 
D---2-2--4-4-----4-----4------| x2
A--------2-2-----4-----2------| 
E----------------2------------|

2:23
E-----------------------------| 
B---5-5-----------------------| 
G---4-4--4-4----------4-4-----| 
D---2-2--4-4-----4-4--4-4-----| x3
A--------2-2-----4-4--2-2-----| 
E----------------2-2----------|

2:35
E-----------------------------| 
B-----------------------------| 
G-----4-4--4-4-4-------4------| 
D-----4-4--4-4-4---4---4------| 
A-----2-2--2-2-2---4---2------| 
E------------------2----------|

2:40
E--------------------------------------------------------| 
B--------------------------------------------------------| 
G--------------------3--4---4------------------3--4---4--| 
D-----6-6--6-6-6-6---3--4---4---4-4--4-4-4-4---3--4---4--| x2
A-----6-6--6-6-6-6---1--2---2---4-4--4-4-4-4---1--2---2--| 
E-----4-4--4-4-4-4--------------2-2--2-2-2-2-------------|

Again Keith, hard finish
2:56
E---9^11-9-7-----7~---------7-------------------------------4~--------| 
B------------9~~--------7-9---9-7~-------------------4^6--4-----------| 
G-----------------------------------------6^8-6-4----6^8--------------| 
D-------------------------------------------------6-------------------| 
A---------------------------------------------------------------------|
-
E-----------------------------9^11-9-7---7----------------------------------------------| 
B---7^9-------4-7~---------------------9---7----7----7---7---7----7----7----7----9-7----| 
G-------4-6-4-------4~---------------------9^11-9^11-9^1---9------9^11-9^11-9^11-----9--| 
D---------------------------------------------------------------------------------------| 
A---------------------------------------------------------------------------------------|
E---------------------------------------------------------------------------------------|

One guitar blend version of Hearts on Fire.
Play it onerself on your guitar.

Hearts on Fire by Mateoz555.
Show more