• Song:

    Heaven

  • Artist:

    Bryan Adams

  • Album:

    Anthology (set - non EU...

e|-----------------------------------------------------------------5-------|
B|---8--10~-10^12r-----8----------10--8----------------5-----8^10(10)10^8--|
G|--9---------------------7--7^9r-------7^9r--5----7^9(9)9^7---------------|
D|---------------------------------------------7---------------------------|
A|-------------------------------------------------------------------------|
E|-------------------------------------------------------------------------|


e|--10^12r--8-7------------------------------------------------------------|
B|---------------8~--------------------------------------------------------|
G|-------------------------------------------------------------------------|
D|-------------------------------------------------------------------------|
A|-------------------------------------------------------------------------|
E|-------------------------------------------------------------------------|

Thats it, it is oficially my first tab writing. Well enjoy and please feel free
to correct it, cuz im only a rookie.

Daniel Alanis
rustymcgrady@hotmail.com

Ill do the end solo later, i gotta go right now...
Show more