• Song:

    Too Drunk

  • Artist:

    Buckcherry

-------------------------------------------------------------------------------
                             TOO DRUNK - Buckcherry
-------------------------------------------------------------------------------
Tabbed by: ironmanben
Email: bentrooper

Tuning: e B G D A E

Guitars:
Guitar 1 (Lead)-Stevie D.
Guitar 2 (Rhythm)-Keith Nelson

verse:
 | x3                        | 1st ending   | 2nd ending
e|---------------------------|--------------|------------|
B|---------------------------|--------------|------------|
G|---------------------------|--------------|------------|
D|---------------------------|--------------|------------|
A|------8---10--11-10-8------|---8--8-------|--------3---|
E|-10-------------------10-8-|-10-10-10-8-5-|-5-5-5p---5-|
-|                           |              |            |
e|---------------------------|--------------|------------|
B|---------------------------|--------------|------------|
G|---xxx-xxx--xx-------------|--------------|------------|
D|--0xxx3xxx--xx-6-5--3------|-0-3-0-3-0----|------------|
A|---xxx-xxx--xx---------3-0-|----------3-0-|--------3---|
E|-----------3---------------|--------------|-5-5-5----5-|

pre-chorus:
e|-----------------------------------------------------------------|
B|-----------------3-3-3-3-3-3-3-3---------------------------------|
G|-----------------2-2-2-2-2-2-2-2-----------------2-2-2-2-5-5-5-5-|
D|-5-5-5-5-5-5-5-5-0-0-0-0-0-0-0-0-5-5-5-5-5-5-5-5-2-2-2-2-5-5-5-5-|
A|-5-5-5-5-5-5-5-5-----------------5-5-5-5-5-5-5-5-0-0-0-0-3-3-3-3-|
E|-3-3-3-3-3-3-3-3-----------------3-3-3-3-3-3-3-3-----------------|
-|                                                                 |
e|-----------------------------------------------------------------|
B|-----------------------------------------------------------------|
G|-----------------2-2-4-4-2-2-4-4-----------------2-2-2-2-5-5-5-5-|
D|-----------------0-0-0-0-0-0-0-0-----------------2-2-2-2-5-5-5-5-|
A|-5-5-7-7-5-5-7-7-----------------5-5-7-7-5-5-7-7-0-0-0-0-3-3-3-3-|
E|-3-3-3-3-3-3-3-3-----------------3-3-3-3-3-3-3-3-----------------|


chorus 1:
e|-------------------|----------|----------------|--------------|
B|-3-3---------------|----------|-3-3------------|--------------|
G|-2-2---------------|----------|-2-2------------|--------------|
D|-0-0----3-3----5-5-|-5-553-33-|-0-0----3-3-----|--------------|
A|--------3-3----5-5-|-5-553-33-|--------3-3-----|---8--8-------|
E|--------1-1----3-3-|-3-331-11-|--------1-1-----|-10-10-10-8-5-|
-|                   |          |                |              |
e|-------------------|----------|----------------|--------------|
B|-3-3---------------|----------|-3-3------------|--------------|
G|-2-2xxxx5-5xxxx7-7-|-7-775-55-|-2-2xxxx5-5xxxx-|--------------|
D|-0-0xxxx3-3xxxx5-5-|-5-553-33-|-0-0xxxx3-3xxxx-|-0-3-0-3-0----|
A|----xxxx---xxxx----|----------|----xxxx---xxxx-|----------3-0-|
E|-------------------|----------|----------------|--------------|

chorus 2:
e|-------------------|----------|-------------------|-------------|
B|-3-3---------------|----------|-3-3---------------|-------------|
G|-2-2---------------|----------|-2-2---------------|-------------|
D|-0-0----3-3----5-5-|-5-553-33-|-0-0----3-3----5-5-|---------3---|
A|--------3-3----5-5-|-5-553-33-|--------3-3----5-5-|---3---3---5-|
E|--------1-1----3-3-|-3-331-11-|--------1-1----3-3-|-5---5-------|
-|                   |          |                   |             |
e|-------------------|----------|-------------------|-------------|
B|-3-3---------------|----------|-3-3---------------|-------------|
G|-2-2xxxx5-5xxxx7-7-|-7-775-55-|-2-2xxxx5-5xxxx----|-------------|
D|-0-0xxxx3-3xxxx5-5-|-5-553-33-|-0-0xxxx3-3xxxx----|---------3-0-|
A|----xxxx---xxxx----|----------|----xxxx---xxxx----|-0-3-0-3-----|
E|-------------------|----------|-------------------|-------------|

e|-------------------|----------|-------------------|-----------------|
B|-3-3---------------|----------|-3-3---------------|-----------------|
G|-2-2---------------|----------|-2-2---------------|-----------------|
D|-0-0----3-3----5-5-|-5-553-33-|-0-0----3-3----5-5-|-5-5-5-5-5-5-5-5-|
A|--------3-3----5-5-|-5-553-33-|--------3-3----5-5-|-5-5-5-5-5-5-5-5-|
E|--------1-1----3-3-|-3-331-11-|--------1-1----3-3-|-3-3-3-3-3-3-3-3-|
-|                   |          |                   |                 |
e|-------------------|----------|-------------------|-----------------|
B|-3-3---------------|----------|-3-3---------------|-----------------|
G|-2-2xxxx5-5xxxx7-7-|-7-775-55-|-2-2xxxx5-5xxxx----|-7-7-7-7-7-7-7-7-|
D|-0-0xxxx3-3xxxx5-5-|-5-553-33-|-0-0xxxx3-3xxxx----|-5-5-5-5-5-5-5-5-|
A|----xxxx---xxxx----|----------|----xxxx---xxxx----|-----------------|
E|-------------------|----------|-------------------|-----------------|

Guitar solo:
e|---------------------------------14^(16)

                
Show more