• Song:

    Big Sur Moon

  • Artist:

    Buckethead

  • Album:

    Colma

Correction to main theme from a tab

|-----------------|-----------------|-----------------|------------------|
|-----------------|-----------------|-----------------|------------------|
|-----------------|-----------------|-----------------|------------------|
|---9---12---9----|----9----12----9-|----9----11---9--|-----9-----11---9-|
|-9---------------|--9--------------|--9--------------|--9---------------|
|-----------------|-----------------|-----------------|------------------|

|-----------------|-----------------|-----------------|------------------|
|-----------------|-----------------|-----------------|------------------|
|-----------------|-----------------|-----------------|------------------|
|---7---11---7----|----7----11----9-|----5----9---5---|-----7-----11---7-|
|-7---------------|--7--------------|--5--------------|--7---------------|
|-----------------|-----------------|-----------------|------------------|
Show more