• Song:

    Gateless Gate

  • Artist:

    Buckethead

  • Album:

    Electric Sea

GATELESS GATE

                                    by

                                BUCKETHEAD

Album: Electric Sea
Tuning: Tuned down half a step (Eflat)


----3------2---------0--------------3------2------------0---|
-------0~------0~-------3--------------0~-----0~---3--------|
---------------------------0~~------------------------0-----|  Repeat x1
----2------0------------------------2------0----------------|
---------------------3-----------------------------3--------|
------------------------------------------------------------|


--------------------0~~-----------------------0~~----------|
---3~----1~----3----0~~----3---1~---3~-------0~~-----------|
--------------------------------------------0~~------------|
-----------------------------------------------------------|
---2~----0~----2-----------2---0~---2~---------------------|
-------------------------------------------0~~-------------|


----3------2---------0--------------3------2------------0---|
-------0~------0~-------3--------------0~-----0~---3--------|
---------------------------0~~------------------------0-----|  Repeat x1
----2------0------------------------2------0----------------|
---------------------3-----------------------------3--------|
------------------------------------------------------------|


---------0---------0----------0---------0---------0---------|
---3---------3----------1---------0---------0---------------|
------0---------0----------0---------0---------0------------|
------------------------------------------------------------|
---3---------2----------0-----------------------------------|
----------------------------------3---------2---------0~~~~-|



Please rate this if you are happy with it.
Show more