sponsored links
Melt The Ice Away - Budgie

Tabbed by: Marcus Lycus 
e-mail: maclark88@juno.com

Down-tuned 1/2 step. (key of D#)

main Lick
G|--9-7---77-------------------|
D|------9----9-7-9-7\5-7-5-----|
A|-------------------------7-5-|
E|-----------------------------|

G|----------------------------------|
D|--------5-----------------------7-|
A|-7-5------7-5-7-5-----------------|
E|-----7------------7-5--3-5-3--0---|

Verses
G|--------------|
D|--------------|
A|-7-7777777777-|
E|--------------|

Bridge
G|------------------|------------------|-----------------|
D|---------9--------|---------9--------|--------9--------|
A|-7--10-7---7-10-7-|-7--10-7---7-10-7-|-7-10-7---7-10-7-|
E|------------------|------------------|-----------------|

G|------------------|------------------|
D|---------9--------|------10----------|
A|--7-10-7---7-10-8-|--11-8---8-11-8---|
E|------------------|------------------|

G|------------------|------------------|
D|---------10-------|--------10--------|
A|--8-11-8---8-11-8-|-8-11-8---8-11-7--|
E|------------------|------------------|
                                              melt the...
G|------------------|------------|-----------|-----------|
D|-------9----------|-----8------|-----7-----|----5-4-3--|
A|--10-7---7-10-6---|---9---69-5-|--85---58--|--3--------|
E|------------------|------------|-----------|-----------|

Song structure

L L L L

V V V V V V V V

L L L L

V V V V V V V V

L 

V V V V 

V V V V 

                
Show more
sponsored links
sponsored links