-----------------------------------------------------------------------------
			     listen to the sound - Building 429
-----------------------------------------------------------------------------

This was my first tab.Please rate and comment. Enjoy the tab

Tuning:EADG
     Verse
G|---------------------------------------------------------------------------|
D|---------------------------------------------------------------------------|
A|---4~---0~-----2~----------------------------------------------------------|    x5
E|------------0~-------------------------------------------------------------|
      Chorus
G|---------------------------------------------------------------------------|
D|------------------------------------------------------2-4------------------|
A|---4~---0~------2~2~--------4~---0~-------2~2~----4-2-----4----------------|    x2
E|------------0~------------------------0~-----------------------------------|
      Bridge
G|---------------------------------------------------------------------------|
D|---------------------------------------------------------------------------|
A|---4444-2222-1111-0000----4444-2222------0000------------------------------|    x2
E|------------------------------------2222-----------------------------------|


Order:
  verse
  Chorus
  Verse
  Chorus
  Bridge
  Chorus
  Chorus



| /  slide up
| \  slide down
| h  hammer-on
| p  pull-off
| ~  vibrato
| +  harmonic
| x  Mute note
===============================================================================
Show more