Capo: 2
Key: E

Building 429 plays many of their songs in the DADGAD tuning.
DADGAD is a variation of the double drop D tuning.
This song is no different.
You will tune your guitar as follows from top to bottom: D,A,D,G,A,D.
This song is in the key of "E" though so you will need to use a capo on the 2nd fret or 
you can just tune your guitar to E,B,E,A,B,E.
The following TAB is relative to the capo on the 2nd fret and/or the E,B,E,A,B,E tuning.

Note:  When there is a "U" at the top of the TAB, I am doing on upstrum to hit the 
appropriate strings.

Intro:
           U       U       U           U
E[---------0---------------------------0---]
B[---------0---------------0-----------0---]
A[-------4---------4-------2-------6---6---]
E[-----4---------0-0-----0-------7-7-------]
B[---2---------5-------0-------7-----------]
E[-----------5-------0-------7-------7-----]

Verse 1:
           U       U       U           U
E[---------0---------------------------0---]
B[---------0---------------0-----------0---]
A[-------4---------4-------2-------6---6---]
E[-----4---------0-0-----0-------7-7-------]
B[---2---------5-------0-------7-----------]
E[-----------5-------0-------7-------7-----]

           U       U       U           U
E[---------0---------------------------0---]
B[---------0---------------0-----------0---]
A[-------4---------4-------2-------6---6---]
E[-----4---------0-0-----0-------7-7-------]
B[---2---------5-------0-------7-----------]
E[-----------5-------0-------7-------7-----]

           U       U       U           U
E[---------0---------------------------0---]
B[---------0---------------0-----------0---]
A[-------4---------4-------2-------6---6---]
E[-----4---------0-0-----0-------7-7-------]
B[---2---------5-------0-------7-----------]
E[-----------5-------0-------7-------7-----]

           U       U       U           U
E[---------0---------------------------0---]
B[---------0---------------0-----------0---]
A[-------4---------4-------2-------6---6---]
E[-----4---------0-0-----0-------7-7-------]
B[---2---------5-------0-------7-----------]
E[-----------5-------0-------7-------7-----]

Chorus:

E[---0---0---0---0---0---0---0---0---]
B[---0---0---0---0---0---0---0---0---]
A[---4---0---2---6---4---0---2---6---]
E[---4---0---0---0---4---0---0---0---]
B[---2---5---0---7---2---5---0---7---]
E[---X---5---0---7---X---5---0---7---]

E[---0---0---0---0---0---0---0---0---]
B[---0---0---0---0---0---0---0---0---]
A[---4---0---2---6---4---0---2---6---]
E[---4---0---0---0---4---0---0---0---]
B[---2---5---0---7---2---5---0---7---]
E[---X---5---0---7---X---5---0---7---]

Back to Intro:
           U       U       U           U
E[---------0---------------------------0---]
B[---------0---------------0-----------0---]
A[-------4---------4-------2-------6---6---]
E[-----4---------0-0-----0-------7-7-------]
B[---2---------5-------0-------7-----------]
E[-----------5-------0-------7-------7-----]

Verse 2:
           U       U       U           U
E[---------0---------------------------0---]
B[---------0---------------0-----------0---]
A[-------4---------4-------2-------6---6---]
E[-----4---------0-0-----0-------7-7-------]
B[---2---------5-------0-------7-----------]
E[-----------5-------0-------7-------7-----]

           U       U       U           U
E[---------0---------------------------0---]
B[---------0---------------0-----------0---]
A[-------4---------4-------2-------6---6---]
E[-----4---------0-0-----0-------7-7-------]
B[---2---------5-------0-------7-----------]
E[-----------5-------0-------7-------7-----]

           U       U       U           U
E[---------0---------------------------0---]
B[---------0---------------0-----------0---]
A[-------4---------4-------2-------6---6---]
E[-----4---------0-0-----0-------7-7-------]
B[---2---------5-------0-------7-----------]
E[-----------5-------0-------7-------7-----]

           U       U       U           U
E[---------0---------------------------0---]
B[---------0---------------0-----------0---]
A[-------4---------4-------2-------6---6---]
E[-----4---------0-0-----0-------7-7-------]
B[---2---------5-------0-------7-----------]
E[-----------5-------0-------7-------7-----]

Chorus:

E[---0---0---0---0---0---0---0---0---]
B[---0---0---0---0---0---0---0---0---]
A[---4---0---2---6---4---0---2---6---]
E[---4---0---0---0---4---0---0---0---]
B[---2---5---0---7---2---5---0---7---]
E[---X---5---0---7---X---5---0---7---]

E[---0---0---0---0---0---0---0---0---]
B[---0---0---0---0---0---0---0---0---]
A[---4---0---2---6---4---0---2---6---]
E[---4---0---0---0---4---0---0---0---]
B[---2---5---0---7---2---5---0---7---]
E[---X---5---0---7---X---5---0---7---]

Bridge:

E[---0---0---0---0---0---0---0---0---]
B[---0---0---0---0---0---0---0---0---]
A[---7---6---7---0---7---6---7---0---]
E[---0---0---7---0---0---0---7---0---]
B[---9---7---X---5---9---7---X---5---]
E[---9---7---6---5---9---7---6---5---]

E[---0---0---0---0---0---0---0---0---]
B[---0---0---0---0---0---0---0---0---]
A[---7---6---7---0---7---6---7---0---]
E[---0---0---7---0---0---0---7---0---]
B[---9---7---X---5---9---7---X---5---]
E[---9---7---6---5---9---7---6---5---]

Chorus:

E[---0---0---0---0---0---0---0---0---]
B[---0---0---0---0---0---0---0---0---]
A[---4---0---2---6---4---0---2---6---]
E[---4---0---0---0---4---0---0---0---]
B[---2---5---0---7---2---5---0---7---]
E[---X---5---0---7---X---5---0---7---]

E[---0---0---0---0---0---0---0---0---]
B[---0---0---0---0---0---0---0---0---]
A[---4---0---2---6---4---0---2---6---]
E[---4---0---0---0---4---0---0---0---]
B[---2---5---0---7---2---5---0---7---]
E[---X---5---0---7---X---5---0---7---]

Outro Chorus:

E[---0---0---0---0---0---0---0---0---]
B[---0---0---0---0---0---0---0---0---]
A[---4---0---2---6---4---0---2---6---]
E[---4---0---0---0---4---0---0---0---]
B[---2---5---0---7---2---5---0---7---]
E[---X---5---0---7---X---5---0---7---]

E[---0---0---0---0---0---0---0---0---]
B[---0---0---0---0---0---0---0---0---]
A[---4---0---2---6---4---0---2---6---]
E[---4---0---0---0---4---0---0---0---]
B[---2---5---0---7---2---5---0---7---]
E[---X---5---0---7---X---5---0---7---]

The very end is mostly drums with the occasional strum on the C#m7 chord which is this chord:

E[---0---]
B[---0---]
A[---4---]
E[---4---]
B[---2---]
E[---X---]

That should be the whole song if you just follow the TAB straight down the page.  Enjoy!
Show more