• Song:

    Conventional Wisdom

  • Artist:

    Built To Spill

  • Album:

    Conventional Wisdom

-------------------------------------------------------------------------------
                             CONVENTIONAL WISDOM – Built to Spill
-------------------------------------------------------------------------------

Tuning: Standard

INTRO CHORDS – listen for timing
e|-------------------------------------------------------------------------|
B|-------------------------------------------------------------------------|
G|-----0---0--------0---0---0--0---0---------------------------------------|
D|---4---4---4----9---9---9--9---9-----------------------------------------|
A|-5-----------10----------------------------------------------------------|
E|-------------------------------------------------------------------------|

MAIN RIFF

e|---------------2-----------------------------------------------|
B|-7--7---5-7-5--3----------3------3--------3--------------------|
G|-7--7----------2------0h2----0h2----2--0-----------------------|
D|-7--7----------------------------------------------------------|
A|---------------------------------------------------------------|
E|---------------------------------------------------------------|


VERSE CHORDS – listen for timing
e|-------------------------------------------------------------------------|
B|-------------------------------------------------------------------------|
G|-7-----------------------------------------------------------------------|
D|-7-----------5-----------------------------------------------------------|
A|-5-----------5-----------------------------------------------------------|
E|-------------3-----------------------------------------------------------|

CHORUS CHORDS – listen for timing

F#5, D ( bass only ), G5, D ( bass only ), F#5, D ( bass only ), A5, G5 back to riff
Show more