• Song:

    Goin Against Your Mind

  • Artist:

    Built To Spill

-------------------------------------------------------------------------------
			     Goin Against Your Mind - Built To Spill
-------------------------------------------------------------------------------

Tabbed By : paulish86
e-mail: paulish86@gmail.com

Tuning: Standard

Intro:  0:42

G|-------------7~~--------------7~~-----7-9-7------------7~~---9-11-9------------7~~--|
D|--9~~----7h9-------9~~----7h9---------------9~~----7h9--------------9~~----7h9------|
A|------------------------------------------------------------------------------------|
E|------------------------------------------------------------------------------------|

G|--------7h9p7------7h9p7-11---7h9p7-7-77777---------|
D|--------------9-99--------------------------55-44---|    x 4
A|----------------------------------------------------|(55-44 only 3)
E|----------------------------------------------------|

Deeper Sounding Part:  1:24

G|-------------------------------------|
D|-------------------------------------|
A|---2-2-2-2-2-2-5-2-------------------|
E|-------------------5-5-5-5-2-2-5-5---|

G|-------------------------------------|
D|-------------------------------------|
A|---2-2-2-2-2-2-5-2---------7-7-9-9---|
E|-------------------5-5-5-5-----------|

G|-------------------------------------|
D|-------------------------------------|
A|---2-2-2-2-2-2-5-2-------------------|
E|-------------------5-5-5-5-2-2-5-5---|

G|-------------------------------------|
D|-------------------------------------|
A|---2-2-2-2-5-5-7-7-5-5-5-5-5-5-5-5---|
E|-------------------------------------|

Transition to words:  1:45

G|-----------------------------------------------------|
D|---99-999-999-9-7h9p7-1212-121212-121212-12-121212---|
A|-----------------------------------------------------|  x 4
E|-----------------------------------------------------|

(slide down)


People think that we don't understand...:  2:06

G|-----------------------------------------|
D|-----------------------------------------|
A|---22-222-222-2-0h2p0-55-555-555-5-555---|
E|-----------------------------------------|

^^repeat that riff the entire song... hhyyooo
Show more