• Song:

    Revel In Contempt

  • Artist:

    Buke And Gass

---------------------------------------------------------------
REVEL IN CONTEMPT - Buke and Gass
---------------------------------------------------------------

Tabbed By : THFT

Tuning: EADG (Standard)

SYMBOLS                                           
h - hammer on                                          
p - pull off                                           
b - bend string up                                     
r - release bend                                       
/ - slide up                                           
\ - slide down                                         
~ - vibrato                  
t - tap (with strumming hand)                          
x - muted, struck string
m - muted, not struck                               

VERSE		 VERSE->CHORUS
G|--------------|---------------------------------------------|
D|--------------|---------------------------------------------|
A|----5---2-----|----5----------------------------------------|
E|--5---3---35--|--5---3--------------------------------------|

CHORUS
G|------------------------------------------------------------|
D|------------------------------------------------------------|
A|--2--2------5--5-------9--9-5----2--2-----------------------|
E|-------3-0-------5-7----------5-------3-0-------------------|

BRIDGE
G|------------------------------------------------------------|
D|---------------8888-8-8-8-8m--------------------------------|
A|--7777-7-7-7-7----------------------------------------------|
E|------------------------------------------------------------|


Buke and Gass Official Website: 
http://bukeandgass.com/
Show more