#----------------------------------PLEASE NOTE---------------------------------#
#This file is the author's own work and represents their interpretation of the #
#song. You may only use this file for private study, scholarship, or research. #
#------------------------------------------------------------------------------#

MY DISEASE
Bullets & Octane


Transcribed by tilleking

#--#     I originally tabbed this song out on         #--#
#--# PowerTab, and I've now converted it to HTML Tab. #--#

Words and Music by Bullets & Octane

E5
0 2 2 x x x
	
C5
0 3 5 5 x x
	
A5
x 0 2 2 x x
	
G5
3 5 5 x x x
D5
x 5 7 7 x x
	
(E5)
x 7 9 9 x x
	
(G5)
x 10 12 12 x x
	
E
0 2 2 1 0 0
B5
x 2 4 4 x x
	
Asus2
x 0 2 2 0 0

Gtr I (D# G# C# F# A# D#) - 'James Daniel'
Gtr II (D# G# C# F# A# D#) - 'Guitar Two'

 Intro
  Q=140                    Q=175
  E5         E5            N.C.
 4/4
  Gtr II
  |          |
  /          /

  Gtr I
|---^0--------(0)--------|-------|
|---^5--------(5)--------|-------|
|---^4--------(4)--------|-------|
|---^2--------(2)--------|-x-x-x-|
|---^2--------(2)--------|-x-x-x-|
|-0----------------------|-x-x-x-|


  Moderately Fast Rock Q=194
  E5                E5               C5               A5
  Gtr II
                                     |                |
                                     /                /

  Gtr I
   ~~                                ~
|-----------------|----------------|----------------|----------------|
|---------------8-|--------------8-|--------------8-|--------------8-|
|-/9--9-7---7-----|-9--9-7---7-----|-9--9-7---7-----|-9--9-7---7-----|
|---------9---9---|--------9---9---|--------9---9---|--------9---9---|
|-----------------|----------------|----------------|----------------|
|-----------------|----------------|----------------|----------------|


  E5               E5               C5               A5
  |                |                |                |
  /                /                /                /

  ~                                 ~
|----------------|----------------|----------------|----------------|
|--------------8-|--------------8-|--------------8-|----------------|
|-9--9-7---7-----|-9--9-7---7-----|-9--9-7---7-----|-9--9-7-------7-|
|--------9---9---|--------9---9---|--------9---9---|--------9-7h9---|
|----------------|----------------|----------------|----------------|
|----------------|----------------|----------------|----------------|


  Gtrs I, II
|---------------------|----------------|
|---------------------|----------------|
|---------------------|----------------|
|---------------------|----------------|
|---------------------|----------------|
|-1b1.5-0-2-0-3-0-4-0-|-5-0-6-0-7-7----|


 Main Riff
  E5                               D5(E5) A5         G5        D5
  Gtr II
  |                |       |       | |    |  |  | |  |    | |  | |
  /                /       /       / /    /  /  / /  /    / /  / /

  Gtr I
|----------------|----------------------|---------------|-----------|
|----------------|----------------------|---------------|-----------|
|----------------|----------------------|---------------|-----------|
|----------------|-------2---------7S9--|---------------|------7-7--|
|----------2-----|-----------------5S7--|-7--7--7-7--5--|-5-5--5-5--|
|-0--5-3h4---3h4-|-0-3h4---3b3.5-0------|-5--5--5-5--3--|-3-3-------|


  E5                               (G5(ED5  A5         G5        D5
  |                |       |        | | |   |  |  | |  |    | |  | |
  /                /       /        / / /   /  /  / /  /    / /  / /

|----------------|------------------------|---------------|-----------|
|----------------|------------------------|---------------|-----------|
|----------------|------------------------|---------------|-----------|
|----------------|-------2---------12S9-7-|---------------|------7-7--|
|----------2-----|-----------------10S7-5-|-7--7--7-7--5--|-5-5--5-5--|
|-0--5-3h4---3h4-|-0-3h4---3b3.5-0--------|-5--5--5-5--3--|-3-3-------|


 Verse
  E5                                A5               G5
  |                |                |                |
  /                /                /                /

|----------------|----------------|----------------|----------------|
|----------------|----------------|----------------|----------------|
|----------------|----------------|----------------|----------------|
|----------------|----------------|----------------|----------------|
|-7-(7)-7--5h7---|-7-(7)-7--5h7---|-7-(7)-7--5h7---|-5-(5)-7--5h7---|
|-0-(0)----------|-0-(0)----------|-5-(5)----------|-3-(3)----------|


  E5                                A5               G5
  |                |                |                |
  /                /                /                /

|----------------|----------------|----------------|-------------|
|----------------|----------------|----------------|-------------|
|----------------|----------------|----------------|-------------|
|----------------|----------------|----------------|-------------|
|-7-(7)-7--5h7---|-7-(7)-7--5h7---|-7-(7)-7--5h7---|-5--5-5-5----|
|-0-(0)----------|-0-(0)----------|-5-(5)----------|-3--3-3-3----|


 Pre-Chorus
  A5
  |                     |
  /                     /

|---------------------|---------------------|
|---------------------|---------------------|
|-2-(2)-2-2-2-(2)-2-2-|-2-2-2-2-2-2-(2)-(2)-|
|-2-(2)-2-2-2-(2)-2-2-|-2-2-2-2-2-2-(2)-(2)-|
|-0-(0)-0-0-0-(0)-0-0-|-0-0-0-0-0-0-(0)-(0)-|
|---------------------|---------------------|


     E
  |   |     |      |           |
  o   /     /      /           /

|----^0----(0)--|-/0-0----------------|
|----^0----(0)--|-/5-5----------------|
|----^1----(1)--|-/4-4-2b4r(2)-0-2p0--|
|----^2----(2)--|---------------------|
|----^2----(2)--|---------------------|
|-0--^0----(0)--|---------------------|


  A5
  |                     |
  /                     /

|---------------------|---------------------|
|---------------------|---------------------|
|-2-(2)-2-2-2-(2)-2-2-|-2-2-2-2-2-2-(2)-(2)-|
|-2-(2)-2-2-2-(2)-2-2-|-2-2-2-2-2-2-(2)-(2)-|
|-0-(0)-0-0-0-(0)-0-0-|-0-0-0-0-0-0-(0)-(0)-|
|---------------------|---------------------|


  B5
  |                     |
  /                     /

|---------------------|---------------------|
|---------------------|---------------------|
|-4-(4)-4-4-4-(4)-4-4-|-4-4-4-4-4-4-(4)-(4)-|
|-4-(4)-4-4-4-(4)-4-4-|-4-4-4-4-4-4-(4)-(4)-|
|-2-(2)-2-2-2-(2)-2-2-|-2-2-2-2-2-2-(2)-(2)-|
|---------------------|---------------------|


   Chorus
    E5          C5            Asus2       E5
     |            |            |           |
     /            /            /           /

||--^0--------|-^(0)--------|-----------|-^0----|
||o-^0--------|-^-1---------|-^0--------|-^0----|
||--^x--------|-^-0---------|-^2--------|-^x----|
||--^2--------|-^-2---------|-^2--------|-^2----|
||o-^2--------|-^-3---------|-^0--------|-^2----|
||--^0--------|-------------|-----------|-^0----|


  C5            G5          D5
    |            |           |          |  | | |
    /            /           /          /  / / /

|-^(0)--------|-^3--------|-----------|--------------||
|-^-1---------|-^0--------|-----------|-------------o||
|-^-0---------|-^0--------|-!7--------|-7--7-7-7-----||
|-^-2---------|-^0--------|-!7--------|-7--7-7-7-----||
|-^-3---------|-^x--------|-!5--------|-5--5-5-5----o||
|-------------|-^3--------|-----------|--------------||


 Main Riff
  E5                               (G5(ED5  A5         G5        D5
  |                |       |        | | |   |  |  | |  |    | |  | |
  /                /       /        / / /   /  /  / /  /    / /  / /

|----------------|------------------------|---------------|-----------|
|----------------|------------------------|---------------|-----------|
|----------------|------------------------|---------------|-----------|
|----------------|-------2---------12S9-7-|---------------|------7-7--|
|----------2-----|-----------------10S7-5-|-7--7--7-7--5--|-5-5--5-5--|
|-0--5-3h4---3h4-|-0-3h4---3b3.5-0--------|-5--5--5-5--3--|-3-3-------|


 Verse
  PM---------|     PM---------|     PM---------|     PM---------|
|----------------|----------------|----------------|----------------|
|----------------|----------------|----------------|----------------|
|----------------|----------------|----------------|----------------|
|----------------|----------------|----------------|----------------|
|-------7--5h7---|-------7--5h7---|-------7--5h7---|-------7--5h7---|
|-0-(0)----------|-0-(0)----------|-5-(5)----------|-3-(3)----------|


  PM---------|     PM---------|     PM---------|
|----------------|----------------|----------------|-------------|
|----------------|----------------|----------------|-------------|
|----------------|----------------|----------------|-------------|
|----------------|----------------|----------------|-------------|
|-------7--5h7---|-------7--5h7---|-------7--5h7---|-5--5-5-5----|
|-0-(0)----------|-0-(0)----------|-5-(5)----------|-3--3-3-3----|


 Pre-Chorus
  A5
  |                     |
  /                     /

|---------------------|---------------------|
|---------------------|---------------------|
|-2-(2)-2-2-2-(2)-2-2-|-2-2-2-2-2-2-(2)-(2)-|
|-2-(2)-2-2-2-(2)-2-2-|-2-2-2-2-2-2-(2)-(2)-|
|-0-(0)-0-0-0-(0)-0-0-|-0-0-0-0-0-0-(0)-(0)-|
|---------------------|---------------------|


     E
  |   |     |      |           |
  o   /     /      /           /

|----^0----(0)--|-/0-0----------------|
|----^0----(0)--|-/5-5----------------|
|----^1----(1)--|-/4-4-2b4r(2)-0-2p0--|
|----^2----(2)--|---------------------|
|----^2----(2)--|---------------------|
|-0--^0----(0)--|---------------------|


  A5
  |                     |
  /                     /

|---------------------|---------------------|
|---------------------|---------------------|
|-2-(2)-2-2-2-(2)-2-2-|-2-2-2-2-2-2-(2)-(2)-|
|-2-(2)-2-2-2-(2)-2-2-|-2-2-2-2-2-2-(2)-(2)-|
|-0-(0)-0-0-0-(0)-0-0-|-0-0-0-0-0-0-(0)-(0)-|
|---------------------|---------------------|


  B5
  |                     |
  /                     /

|---------------------|---------------------|
|---------------------|---------------------|
|-4-(4)-4-4-4-(4)-4-4-|-4-4-4-4-4-4-(4)-(4)-|
|-4-(4)-4-4-4-(4)-4-4-|-4-4-4-4-4-4-(4)-(4)-|
|-2-(2)-2-2-2-(2)-2-2-|-2-2-2-2-2-2-(2)-(2)-|
|---------------------|---------------------|


   Chorus
    E5          C5            Asus2       E
     |            |            |           |
     /            /            /           /

||--^0--------|-^(0)--------|-----------|-^0----|
||o-^0--------|-^-1---------|-^0--------|-^0----|
||--^x--------|-^-0---------|-^2--------|-^x----|
||--^2--------|-^-2---------|-^2--------|-^2----|
||o-^2--------|-^-3---------|-^0--------|-^2----|
||--^0--------|-------------|-----------|-^0----|


  C5            G5          D5
    |            |           |          |  | | |
    /            /           /          /  / / /

|-^(0)--------|-^3--------|-----------|--------------||
|-^-1---------|-^0--------|-----------|-------------o||
|-^-0---------|-^0--------|-!7--------|-7--7-7-7-----||
|-^-2---------|-^0--------|-!7--------|-7--7-7-7-----||
|-^-3---------|-^x--------|-!5--------|-5--5-5-5----o||
|-------------|-^3--------|-----------|--------------||


 Middle
  E5
  |  |            |  |            |  |            |
  /  /            /  /            /  /            /

|---------------|---------------|---------------|--------------|
|-------x-x-x-x-|-------x-x-x-x-|-------x-x-x-x-|------x-x-x-x-|
|-------x-x-x-x-|-------x-x-x-x-|-------x-x-x-x-|------x-x-x-x-|
|-2--2--x-x-x-x-|-2--2--x-x-x-x-|-2--2--x-x-x-x-|-2----x-x-x-x-|
|-2--2--x-x-x-x-|-2--2--x-x-x-x-|-2--2--x-x-x-x-|-2----x-x-x-x-|
|-0--0----------|-0--0----------|-0--0----------|-0------------|


  C5        A5                      E5
  | | | |   | |   | |   | | | |     | |             | |
  / / / /   / /   / /   / / / /     / /             / /

|---------------|---------------||----------------|---------------|
|---------------|---------------||o------x-x-x-x--|------x-x-x-x--|
|-5-5-5-5---2-2-|-2-2---2-2-2-2-||-------x-x-x-x--|------x-x-x-x--|
|-5-5-5-5---2-2-|-2-2---2-2-2-2-||--2-2--x-x-x-x--|-2-2--x-x-x-x--|
|-3-3-3-3---0-0-|-0-0---0-0-0-0-||o-2-2--x-x-x-x--|-2-2--x-x-x-x--|
|---------------|---------------||--0-0-----------|-0-0-----------|


  C5        A5                      N.C.
  | | | |   | |   | |   | | | |
  / / / /   / /   / /   / / / /

                                 3x
|---------------|----------------||-------------|
|---------------|---------------o||-------------|
|-5-5-5-5---2-2-|-2-2---2-2-2-2--||-------------|
|-5-5-5-5---2-2-|-2-2---2-2-2-2--||-------------|
|-3-3-3-3---0-0-|-0-0---0-0-0-0-o||-------------|
|---------------|----------------||-------------|


  E5         (E5)  E5              (E5)
  |  | |   | | |   |   | |       | | |
  /  / /   / / /   /   / /       / / /

|----------------|---------------------|----|
|----------------|---------------------|----|
|----------------|---------------------|----|
|----------------|-------2---------9-9-|----|
|----------2-----|-----------------7-7-|----|
|-0--5-3h4---3h4-|-0-3h4---3b3.5-0-----|----|


 Chorus
  E5         C5                 Asus2
  |          |                  |
  /          /                  /

|----------|------------------|-----------------|
|----------|------------------|-----------------|
|-x--------|-5--5-5-5-5-(5)-5-|-2-2-2-2-2-2-2-2-|
|-2--------|-5--5-5-5-5-(5)-5-|-2-2-2-2-2-2-2-2-|
|-2--------|-3--3-3-3-3-(3)-3-|-0-0-0-0-0-0-0-0-|
|-0--------|------------------|-----------------|


  E5
   |
   /

|-(0)-----------------------------|
|--0--(0)-(0)-(0)-(0)-(0)-(0)-(0)-|
|--x------------------------------|
|--2---2---2---2---2---2---2---2--|
|--2---2---2---2---2---2---2---2--|
|--0---0---0---0---0---0---0---0--|


  C5                 G5
  |                  |
  /                  /

|------------------|-3---3---3---3---3--(3)--3--|
|------------------|-0---0---0---0---0--(0)--0--|
|-5--5-5-5-5-(5)-5-|-0---0---0---0---0--(0)--0--|
|-5--5-5-5-5-(5)-5-|-0---0---0---0---0--(0)--0--|
|-3--3-3-3-3-(3)-3-|-x--(x)-(x)-(x)-(x)-(x)-(x)-|
|------------------|-3---3---3---3---3--(3)--3--|


  D5
  |                | | | | | | | |
  /                / / / / / / / /

|----------------|-----------------|
|----------------|-----------------|
|-7--7-7-7-7-7-7-|-7-7-7-7-7-7-7-7-|
|-7--5-7-7-7-7-7-|-7-7-7-7-7-7-7-7-|
|-5--5-5-5-5-5-5-|-5-5-5-5-5-5-5-5-|
|----------------|-----------------|


    E           C5            Asus2       E5
     |            |            |           |
     /            /            /           /

||--^0--------|-^(0)--------|-----------|-^0----|
||o-^0--------|-^-1---------|-^0--------|-^0----|
||--^x--------|-^-0---------|-^2--------|-^x----|
||--^2--------|-^-2---------|-^2--------|-^2----|
||o-^2--------|-^-3---------|-^0--------|-^2----|
||--^0--------|-------------|-----------|-^0----|


  C5            G5          D5
    |            |           |          |  | | |
    /            /           /          /  / / /

|-^(0)--------|-^3--------|-----------|--------------||
|-^-1---------|-^0--------|-----------|-------------o||
|-^-0---------|-^0--------|-!7--------|-7--7-7-7-----||
|-^-2---------|-^0--------|-!7--------|-7--7-7-7-----||
|-^-3---------|-^x--------|-!5--------|-5--5-5-5----o||
|-------------|-^3--------|-----------|--------------||


 Out-Chorus
  E           C5            Asus2       E5
   |            |            |           |
   /            /            /           /

|-^0--------|-^(0)--------|-----------|-^0----|
|-^0--------|-^-1---------|-^0--------|-^0----|
|-^x--------|-^-0---------|-^2--------|-^x----|
|-^2--------|-^-2---------|-^2--------|-^2----|
|-^2--------|-^-3---------|-^0--------|-^2----|
|-^0--------|-------------|-----------|-^0----|


  C5            G5          D5            E5
    |            |          |               |
    /            /          /               /

                                            ~~~~
|-^(0)--------|-^3--------|-------------|-------------------|
|-^-1---------|-^0--------|-------------|-----------------8-|
|-^-0---------|-^0--------|-7-----------|--/9---9-7---7-----|
|-^-2---------|-^0--------|-7-----------|-----------9---9---|
|-^-3---------|-^x--------|-5-----------|-------------------|
|-------------|-^3--------|--------12\--|-(12)--------------|


  E5
   |                |                |
   /                /                /

   ~~
|-----------------|----------------|------|
|---------------8-|--------------8-|------|
|-/9--9-7---7-----|-9--9-7---7-----|-9----|
|---------9---9---|--------9---9---|------|
|-----------------|----------------|------|
|-----------------|----------------|------|



Tablature Legend
----------------
 h   - hammer-on
 p   - pull-off
 b   - bend
 pb  - pre-bend
 r   - bend release (if no number after the r, then release immediately)
 /\  - slide into or out of (from/to "nowhere")
 s   - legato slide
 S   - shift slide
 - natural harmonic
[n]  - artificial harmonic
n(n) - tapped harmonic
 ~   - vibrato
 tr  - trill
 T   - tap
 TP  - trem. picking
 PM  - palm muting
\n/  - tremolo bar dip; n = amount to dip
 \n  - tremolo bar down
 n/  - tremolo bar up
/n\  - tremolo bar inverted dip
 =   - hold bend; also acts as connecting device for hammers/pulls
 <> - volume swell (louder/softer)
 x   - on rhythm slash represents muted slash
 o   - on rhythm slash represents single note slash

Misc Legend
-----------
 |  - bar
||  - double bar
||o - repeat start
o|| - repeat end
*|  - double bar (ending)
 :  - bar (freetime)
 $  - Segno
 &  - Coda
Tempo markers -  = BPM(8/16=s8/s16), where s8 = swing 8ths, s16 = swing 16ths
Show more